ISO-10303-21;
HEADER;
FILE_DESCRIPTION (( 'STEP AP203' ),
    '1' );
FILE_NAME ('63682.step',
    '2021-11-10T06:36:17',
    ( '' ),
    ( '' ),
    'SwSTEP 2.0',
    'SolidWorks 2019',
    '' );
FILE_SCHEMA (( 'CONFIG_CONTROL_DESIGN' ));
ENDSEC;

DATA;
#1 = CIRCLE ( 'NONE', #139, 0.2499999999999997780 ) ;
#2 = EDGE_CURVE ( 'NONE', #80, #80, #130, .T. ) ;
#3 = CC_DESIGN_APPROVAL ( #162, ( #184 ) ) ;
#4 = DIRECTION ( 'NONE',  ( 1.000000000000000000, 0.0000000000000000000, -3.469446951953617344E-15 ) ) ;
#5 = EDGE_LOOP ( 'NONE', ( #134 ) ) ;
#6 = CARTESIAN_POINT ( 'NONE',  ( 1.745740669421565494E-15, -7.228014483236714305E-17, 0.4999999999999996669 ) ) ;
#7 = CC_DESIGN_PERSON_AND_ORGANIZATION_ASSIGNMENT ( #157, #33, ( #210 ) ) ;
#8 = ORIENTED_EDGE ( 'NONE', *, *, #201, .F. ) ;
#9 = AXIS2_PLACEMENT_3D ( 'NONE', #154, #190, #228 ) ;
#10 = DIRECTION ( 'NONE',  ( 3.491481338843133355E-15, -0.0000000000000000000, 1.000000000000000000 ) ) ;
#11 = DIRECTION ( 'NONE',  ( 1.000000000000000000, 0.0000000000000000000, 0.0000000000000000000 ) ) ;
#12 = CARTESIAN_POINT ( 'NONE',  ( 1.316288464743861212E-13, 1.499999999999994005, 37.69999999999999574 ) ) ;
#13 = COORDINATED_UNIVERSAL_TIME_OFFSET ( 1, 0, .AHEAD. ) ;
#14 = DIRECTION ( 'NONE',  ( -3.491481338843133355E-15, 1.224646799147353207E-16, -1.000000000000000000 ) ) ;
#15 = CALENDAR_DATE ( 2021, 10, 11 ) ;
#16 = CC_DESIGN_PERSON_AND_ORGANIZATION_ASSIGNMENT ( #49, #177, ( #24 ) ) ;
#17 = CARTESIAN_POINT ( 'NONE',  ( 1.745740669421564114E-15, 0.0000000000000000000, 0.4999999999999992784 ) ) ;
#18 = AXIS2_PLACEMENT_3D ( 'NONE', #204, #73, #147 ) ;
#19 = CIRCLE ( 'NONE', #75, 1.199999999999998845 ) ;
#20 = ADVANCED_FACE ( 'NONE', ( #68, #106 ), #45, .T. ) ;
#21 = CARTESIAN_POINT ( 'NONE',  ( 1.895304733430036743E-14, 0.0000000000000000000, 5.428368504635990632 ) ) ;
#22 = EDGE_CURVE ( 'NONE', #156, #156, #19, .T. ) ;
#23 = FACE_OUTER_BOUND ( 'NONE', #39, .T. ) ;
#24 = SECURITY_CLASSIFICATION ( '', '', #31 ) ;
#25 = ORIENTED_EDGE ( 'NONE', *, *, #72, .T. ) ;
#26 = FACE_BOUND ( 'NONE', #97, .T. ) ;
#27 = EDGE_LOOP ( 'NONE', ( #208 ) ) ;
#28 = AXIS2_PLACEMENT_3D ( 'NONE', #128, #108, #222 ) ;
#29 = CARTESIAN_POINT ( 'NONE',  ( 0.2500000000000014988, 0.0000000000000000000, 0.4999999999999983902 ) ) ;
#30 = AXIS2_PLACEMENT_3D ( 'NONE', #131, #55, #37 ) ;
#31 = SECURITY_CLASSIFICATION_LEVEL ( 'unclassified' ) ;
#32 = CALENDAR_DATE ( 2021, 10, 11 ) ;
#33 = PERSON_AND_ORGANIZATION_ROLE ( 'design_owner' ) ;
#34 = PERSON_AND_ORGANIZATION ( #92, #167 ) ;
#35 = DIRECTION ( 'NONE',  ( 3.491481338843133355E-15, -1.224646799147353207E-16, 1.000000000000000000 ) ) ;
#36 = DIRECTION ( 'NONE',  ( -3.491481338843133355E-15, 1.224646799147353207E-16, -1.000000000000000000 ) ) ;
#37 = DIRECTION ( 'NONE',  ( 4.275831445896958607E-31, 1.000000000000000000, 1.224646799147353207E-16 ) ) ;
#38 = ADVANCED_FACE ( 'NONE', ( #51, #144 ), #103, .T. ) ;
#39 = EDGE_LOOP ( 'NONE', ( #62 ) ) ;
#40 = CARTESIAN_POINT ( 'NONE',  ( 1.326762908760390423E-13, -4.653657836759941941E-15, 38.00000000000000000 ) ) ;
#41 = EDGE_LOOP ( 'NONE', ( #115 ) ) ;
#42 = DIRECTION ( 'NONE',  ( -4.275831445896958607E-31, -1.000000000000000000, -1.224646799147353207E-16 ) ) ;
#43 = CARTESIAN_POINT ( 'NONE',  ( 1.326762908760390423E-13, 1.199999999999994182, 38.00000000000000000 ) ) ;
#44 = AXIS2_PLACEMENT_3D ( 'NONE', #40, #243, #169 ) ;
#45 = CONICAL_SURFACE ( 'NONE', #183, 1.499999999999996225, 0.2617993877991428020 ) ;
#46 = PERSON_AND_ORGANIZATION_ROLE ( 'creator' ) ;
#47 = PERSON_AND_ORGANIZATION ( #92, #167 ) ;
#48 = ADVANCED_FACE ( 'NONE', ( #163 ), #237, .F. ) ;
#49 = PERSON_AND_ORGANIZATION ( #92, #167 ) ;
#50 =( NAMED_UNIT ( * ) PLANE_ANGLE_UNIT ( ) SI_UNIT ( $, .RADIAN. ) );
#51 = FACE_OUTER_BOUND ( 'NONE', #41, .T. ) ;
#52 = CALENDAR_DATE ( 2021, 10, 11 ) ;
#53 = DIRECTION ( 'NONE',  ( 0.0000000000000000000, 1.000000000000000000, 0.0000000000000000000 ) ) ;
#54 = AXIS2_PLACEMENT_3D ( 'NONE', #6, #78, #42 ) ;
#55 = DIRECTION ( 'NONE',  ( -3.491481338843133355E-15, 1.224646799147353207E-16, -1.000000000000000000 ) ) ;
#56 = PRODUCT_DEFINITION ( 'UNKNOWN', '', #184, #136 ) ;
#57 = LOCAL_TIME ( 7, 36, 17.00000000000000000, #104 ) ;
#58 = ORIENTED_EDGE ( 'NONE', *, *, #151, .F. ) ;
#59 = DIRECTION ( 'NONE',  ( 3.491481338843133355E-15, -0.0000000000000000000, 1.000000000000000000 ) ) ;
#60 = EDGE_LOOP ( 'NONE', ( #229 ) ) ;
#61 = PLANE ( 'NONE',  #9 ) ;
#62 = ORIENTED_EDGE ( 'NONE', *, *, #64, .F. ) ;
#63 = CARTESIAN_POINT ( 'NONE',  ( 1.745740669421564903E-15, 0.0000000000000000000, 0.4999999999999994449 ) ) ;
#64 = EDGE_CURVE ( 'NONE', #192, #192, #1, .T. ) ;
#65 = PERSON_AND_ORGANIZATION ( #92, #167 ) ;
#66 = CC_DESIGN_APPROVAL ( #203, ( #56 ) ) ;
#67 = PERSON_AND_ORGANIZATION ( #92, #167 ) ;
#68 = FACE_BOUND ( 'NONE', #79, .T. ) ;
#69 = PERSON_AND_ORGANIZATION ( #92, #167 ) ;
#70 = APPROVAL_PERSON_ORGANIZATION ( #47, #203, #238 ) ;
#71 = ORIENTED_EDGE ( 'NONE', *, *, #72, .F. ) ;
#72 = EDGE_CURVE ( 'NONE', #233, #233, #205, .T. ) ;
#73 = DIRECTION ( 'NONE',  ( 3.491481338843133355E-15, -0.0000000000000000000, 1.000000000000000000 ) ) ;
#74 = CIRCLE ( 'NONE', #148, 1.499999999999998446 ) ;
#75 = AXIS2_PLACEMENT_3D ( 'NONE', #200, #36, #53 ) ;
#76 = CC_DESIGN_SECURITY_CLASSIFICATION ( #24, ( #184 ) ) ;
#77 = CARTESIAN_POINT ( 'NONE',  ( -1.786038389295302186E-30, 0.0000000000000000000, -5.115417256925931626E-16 ) ) ;
#78 = DIRECTION ( 'NONE',  ( 3.491481338843133355E-15, -1.224646799147353207E-16, 1.000000000000000000 ) ) ;
#79 = EDGE_LOOP ( 'NONE', ( #25 ) ) ;
#80 = VERTEX_POINT ( 'NONE', #211 ) ;
#81 = DATE_TIME_ROLE ( 'classification_date' ) ;
#82 = VERTEX_POINT ( 'NONE', #123 ) ;
#83 = VERTEX_POINT ( 'NONE', #219 ) ;
#84 = APPROVAL_STATUS ( 'not_yet_approved' ) ;
#85 = DIRECTION ( 'NONE',  ( 4.275831445896958607E-31, 1.000000000000000000, 1.224646799147353207E-16 ) ) ;
#86 = APPROVAL_STATUS ( 'not_yet_approved' ) ;
#87 = AXIS2_PLACEMENT_3D ( 'NONE', #77, #152, #133 ) ;
#88 = LOCAL_TIME ( 7, 36, 17.00000000000000000, #236 ) ;
#89 = ADVANCED_FACE ( 'NONE', ( #174 ), #61, .F. ) ;
#90 = PRODUCT_DEFINITION_SHAPE ( 'NONE', 'NONE',  #56 ) ;
#91 = DIRECTION ( 'NONE',  ( 3.491481338843133355E-15, -0.0000000000000000000, 1.000000000000000000 ) ) ;
#92 = PERSON ( 'UNSPECIFIED', 'UNSPECIFIED', 'UNSPECIFIED', ('UNSPECIFIED'), ('UNSPECIFIED'), ('UNSPECIFIED') ) ;
#93 = CARTESIAN_POINT ( 'NONE',  ( 3.553064401646820692E-15, 0.0000000000000000000, 1.017638090205028156 ) ) ;
#94 = CC_DESIGN_APPROVAL ( #145, ( #24 ) ) ;
#95 = EDGE_LOOP ( 'NONE', ( #58 ) ) ;
#96 = DIRECTION ( 'NONE',  ( 3.491481338843133355E-15, -0.0000000000000000000, 1.000000000000000000 ) ) ;
#97 = EDGE_LOOP ( 'NONE', ( #187 ) ) ;
#98 = CC_DESIGN_PERSON_AND_ORGANIZATION_ASSIGNMENT ( #65, #126, ( #184 ) ) ;
#99 = AXIS2_PLACEMENT_3D ( 'NONE', #63, #10, #137 ) ;
#100 = FACE_OUTER_BOUND ( 'NONE', #175, .T. ) ;
#101 = DATE_AND_TIME ( #161, #88 ) ;
#102 = CARTESIAN_POINT ( 'NONE',  ( 0.3181483474218633756, 0.0000000000000000000, 1.017638090205027046 ) ) ;
#103 = CYLINDRICAL_SURFACE ( 'NONE', #109, 1.499999999999996225 ) ;
#104 = COORDINATED_UNIVERSAL_TIME_OFFSET ( 1, 0, .AHEAD. ) ;
#105 = MANIFOLD_SOLID_BREP ( 'Corps-Déplacer/Copier1[2]', #149 ) ;
#106 = FACE_OUTER_BOUND ( 'NONE', #189, .T. ) ;
#107 = CONICAL_SURFACE ( 'NONE', #44, 1.199999999999998845, 0.7853981633974450594 ) ;
#108 = DIRECTION ( 'NONE',  ( 3.491481338843133355E-15, -0.0000000000000000000, 1.000000000000000000 ) ) ;
#109 = AXIS2_PLACEMENT_3D ( 'NONE', #180, #14, #85 ) ;
#110 = MANIFOLD_SOLID_BREP ( 'Corps-Déplacer/Copier1[1]', #239 ) ;
#111 = APPLICATION_CONTEXT ( 'configuration controlled 3d designs of mechanical parts and assemblies' ) ;
#112 = DIRECTION ( 'NONE',  ( 1.000000000000000000, 0.0000000000000000000, -3.469446951953622866E-15 ) ) ;
#113 = ORIENTED_EDGE ( 'NONE', *, *, #64, .T. ) ;
#114 = DIRECTION ( 'NONE',  ( 0.0000000000000000000, 1.000000000000000000, 0.0000000000000000000 ) ) ;
#115 = ORIENTED_EDGE ( 'NONE', *, *, #151, .T. ) ;
#116 = DIRECTION ( 'NONE',  ( -3.491481338843133355E-15, 1.224646799147353207E-16, -1.000000000000000000 ) ) ;
#117 = CIRCLE ( 'NONE', #18, 0.2499999999999997780 ) ;
#118 = AXIS2_PLACEMENT_3D ( 'NONE', #141, #178, #11 ) ;
#119 = DATE_AND_TIME ( #15, #120 ) ;
#120 = LOCAL_TIME ( 7, 36, 17.00000000000000000, #140 ) ;
#121 = SHAPE_DEFINITION_REPRESENTATION ( #90, #129 ) ;
#122 = APPROVAL_STATUS ( 'not_yet_approved' ) ;
#123 = CARTESIAN_POINT ( 'NONE',  ( 1.500000000000015099, 0.0000000000000000000, 5.428368504635985303 ) ) ;
#124 = DATE_TIME_ROLE ( 'creation_date' ) ;
#125 = CARTESIAN_POINT ( 'NONE',  ( -6.413803915257457113E-31, 2.249659577954772199E-32, -1.836986451539393076E-16 ) ) ;
#126 = PERSON_AND_ORGANIZATION_ROLE ( 'design_supplier' ) ;
#127 = CC_DESIGN_PERSON_AND_ORGANIZATION_ASSIGNMENT ( #69, #164, ( #56 ) ) ;
#128 = CARTESIAN_POINT ( 'NONE',  ( 0.0000000000000000000, 0.0000000000000000000, 0.0000000000000000000 ) ) ;
#129 = ADVANCED_BREP_SHAPE_REPRESENTATION ( '63682', ( #110, #105, #118 ), #226 ) ;
#130 = CIRCLE ( 'NONE', #28, 0.2500000000000000000 ) ;
#131 = CARTESIAN_POINT ( 'NONE',  ( 1.326762908760390423E-13, 8.998558695971069014E-33, 38.00000000000000000 ) ) ;
#132 = ADVANCED_FACE ( 'NONE', ( #135 ), #230, .T. ) ;
#133 = DIRECTION ( 'NONE',  ( 1.000000000000000000, 0.0000000000000000000, -3.491481338843133355E-15 ) ) ;
#134 = ORIENTED_EDGE ( 'NONE', *, *, #2, .F. ) ;
#135 = FACE_OUTER_BOUND ( 'NONE', #232, .T. ) ;
#136 = DESIGN_CONTEXT ( 'detailed design', #165, 'design' ) ;
#137 = DIRECTION ( 'NONE',  ( 1.000000000000000000, 0.0000000000000000000, -3.491481338843132961E-15 ) ) ;
#138 = DATE_AND_TIME ( #143, #57 ) ;
#139 = AXIS2_PLACEMENT_3D ( 'NONE', #17, #59, #4 ) ;
#140 = COORDINATED_UNIVERSAL_TIME_OFFSET ( 1, 0, .AHEAD. ) ;
#141 = CARTESIAN_POINT ( 'NONE',  ( 0.0000000000000000000, 0.0000000000000000000, 0.0000000000000000000 ) ) ;
#142 = COORDINATED_UNIVERSAL_TIME_OFFSET ( 1, 0, .AHEAD. ) ;
#143 = CALENDAR_DATE ( 2021, 10, 11 ) ;
#144 = FACE_OUTER_BOUND ( 'NONE', #27, .T. ) ;
#145 = APPROVAL ( #122, 'UNSPECIFIED' ) ;
#146 = DIRECTION ( 'NONE',  ( 1.000000000000000000, 0.0000000000000000000, -3.469446951953622866E-15 ) ) ;
#147 = DIRECTION ( 'NONE',  ( 1.000000000000000000, 0.0000000000000000000, -3.469446951953617344E-15 ) ) ;
#148 = AXIS2_PLACEMENT_3D ( 'NONE', #188, #116, #114 ) ;
#149 = CLOSED_SHELL ( 'NONE', ( #132, #158, #48 ) ) ;
#150 = PRODUCT_RELATED_PRODUCT_CATEGORY ( 'detail', '', ( #210 ) ) ;
#151 = EDGE_CURVE ( 'NONE', #160, #160, #74, .T. ) ;
#152 = DIRECTION ( 'NONE',  ( 3.491481338843133355E-15, -0.0000000000000000000, 1.000000000000000000 ) ) ;
#153 = EDGE_LOOP ( 'NONE', ( #71 ) ) ;
#154 = CARTESIAN_POINT ( 'NONE',  ( 1.745740669421565494E-15, -7.228014483236714305E-17, 0.4999999999999996669 ) ) ;
#155 = ORIENTED_EDGE ( 'NONE', *, *, #196, .F. ) ;
#156 = VERTEX_POINT ( 'NONE', #43 ) ;
#157 = PERSON_AND_ORGANIZATION ( #92, #167 ) ;
#158 = ADVANCED_FACE ( 'NONE', ( #186, #23 ), #172, .T. ) ;
#159 = MECHANICAL_CONTEXT ( 'NONE', #111, 'mechanical' ) ;
#160 = VERTEX_POINT ( 'NONE', #12 ) ;
#161 = CALENDAR_DATE ( 2021, 10, 11 ) ;
#162 = APPROVAL ( #84, 'UNSPECIFIED' ) ;
#163 = FACE_OUTER_BOUND ( 'NONE', #5, .T. ) ;
#164 = PERSON_AND_ORGANIZATION_ROLE ( 'creator' ) ;
#165 = APPLICATION_CONTEXT ( 'configuration controlled 3d designs of mechanical parts and assemblies' ) ;
#166 = CARTESIAN_POINT ( 'NONE',  ( 1.895304733430036743E-14, 0.0000000000000000000, 5.428368504635990632 ) ) ;
#167 = ORGANIZATION ( 'UNSPECIFIED', 'UNSPECIFIED', '' ) ;
#168 = APPROVAL_PERSON_ORGANIZATION ( #67, #162, #220 ) ;
#169 = DIRECTION ( 'NONE',  ( 0.0000000000000000000, 1.000000000000000000, 0.0000000000000000000 ) ) ;
#170 = CC_DESIGN_PERSON_AND_ORGANIZATION_ASSIGNMENT ( #34, #46, ( #184 ) ) ;
#171 = ADVANCED_FACE ( 'NONE', ( #207, #26 ), #107, .T. ) ;
#172 = CYLINDRICAL_SURFACE ( 'NONE', #87, 0.2499999999999998890 ) ;
#173 = ORIENTED_EDGE ( 'NONE', *, *, #201, .T. ) ;
#174 = FACE_OUTER_BOUND ( 'NONE', #206, .T. ) ;
#175 = EDGE_LOOP ( 'NONE', ( #173 ) ) ;
#176 = FACE_OUTER_BOUND ( 'NONE', #153, .T. ) ;
#177 = PERSON_AND_ORGANIZATION_ROLE ( 'classification_officer' ) ;
#178 = DIRECTION ( 'NONE',  ( 0.0000000000000000000, 0.0000000000000000000, 1.000000000000000000 ) ) ;
#179 = APPROVAL_ROLE ( '' ) ;
#180 = CARTESIAN_POINT ( 'NONE',  ( 0.0000000000000000000, 0.0000000000000000000, 0.0000000000000000000 ) ) ;
#181 = PERSON_AND_ORGANIZATION ( #92, #167 ) ;
#182 = DIRECTION ( 'NONE',  ( -4.275831445896958607E-31, -1.000000000000000000, -1.224646799147353207E-16 ) ) ;
#183 = AXIS2_PLACEMENT_3D ( 'NONE', #166, #240, #146 ) ;
#184 = PRODUCT_DEFINITION_FORMATION_WITH_SPECIFIED_SOURCE ( 'ANY', '', #210, .NOT_KNOWN. ) ;
#185 = PLANE ( 'NONE',  #30 ) ;
#186 = FACE_OUTER_BOUND ( 'NONE', #224, .T. ) ;
#187 = ORIENTED_EDGE ( 'NONE', *, *, #22, .T. ) ;
#188 = CARTESIAN_POINT ( 'NONE',  ( 1.316288464743861212E-13, -4.616918432785521081E-15, 37.69999999999999574 ) ) ;
#189 = EDGE_LOOP ( 'NONE', ( #155 ) ) ;
#190 = DIRECTION ( 'NONE',  ( 3.491481338843133355E-15, -1.224646799147353207E-16, 1.000000000000000000 ) ) ;
#191 = AXIS2_PLACEMENT_3D ( 'NONE', #21, #91, #112 ) ;
#192 = VERTEX_POINT ( 'NONE', #29 ) ;
#193 = CC_DESIGN_DATE_AND_TIME_ASSIGNMENT ( #223, #81, ( #24 ) ) ;
#194 = TOROIDAL_SURFACE ( 'NONE', #99, 2.250000000000000000, 2.000000000000000000 ) ;
#195 = APPROVAL_DATE_TIME ( #119, #145 ) ;
#196 = EDGE_CURVE ( 'NONE', #82, #82, #213, .T. ) ;
#197 =( LENGTH_UNIT ( ) NAMED_UNIT ( * ) SI_UNIT ( .MILLI., .METRE. ) );
#198 =( NAMED_UNIT ( * ) SI_UNIT ( $, .STERADIAN. ) SOLID_ANGLE_UNIT ( ) );
#199 = ORIENTED_EDGE ( 'NONE', *, *, #2, .T. ) ;
#200 = CARTESIAN_POINT ( 'NONE',  ( 1.326762908760390423E-13, -4.653657836759941941E-15, 38.00000000000000000 ) ) ;
#201 = EDGE_CURVE ( 'NONE', #83, #83, #117, .T. ) ;
#202 = APPROVAL_PERSON_ORGANIZATION ( #181, #145, #179 ) ;
#203 = APPROVAL ( #86, 'UNSPECIFIED' ) ;
#204 = CARTESIAN_POINT ( 'NONE',  ( 1.745740669421564114E-15, 0.0000000000000000000, 0.4999999999999992784 ) ) ;
#205 = CIRCLE ( 'NONE', #241, 0.3181483474218598229 ) ;
#206 = EDGE_LOOP ( 'NONE', ( #8 ) ) ;
#207 = FACE_OUTER_BOUND ( 'NONE', #95, .T. ) ;
#208 = ORIENTED_EDGE ( 'NONE', *, *, #196, .T. ) ;
#209 = DIRECTION ( 'NONE',  ( 1.000000000000000000, 0.0000000000000000000, -3.407851026954633398E-15 ) ) ;
#210 = PRODUCT ( '63682', '63682', '', ( #159 ) ) ;
#211 = CARTESIAN_POINT ( 'NONE',  ( 0.2500000000000000000, 0.0000000000000000000, -8.728703347107833388E-16 ) ) ;
#212 = CC_DESIGN_DATE_AND_TIME_ASSIGNMENT ( #217, #124, ( #56 ) ) ;
#213 = CIRCLE ( 'NONE', #191, 1.499999999999996225 ) ;
#214 = ADVANCED_FACE ( 'NONE', ( #225 ), #185, .F. ) ;
#215 = AXIS2_PLACEMENT_3D ( 'NONE', #125, #35, #182 ) ;
#216 = APPROVAL_DATE_TIME ( #138, #203 ) ;
#217 = DATE_AND_TIME ( #52, #227 ) ;
#218 = LOCAL_TIME ( 7, 36, 17.00000000000000000, #13 ) ;
#219 = CARTESIAN_POINT ( 'NONE',  ( 0.2500000000000014988, 0.0000000000000000000, 0.4999999999999983902 ) ) ;
#220 = APPROVAL_ROLE ( '' ) ;
#221 = APPROVAL_DATE_TIME ( #101, #162 ) ;
#222 = DIRECTION ( 'NONE',  ( 1.000000000000000000, 0.0000000000000000000, -3.491481338843133355E-15 ) ) ;
#223 = DATE_AND_TIME ( #32, #218 ) ;
#224 = EDGE_LOOP ( 'NONE', ( #199 ) ) ;
#225 = FACE_OUTER_BOUND ( 'NONE', #60, .T. ) ;
#226 =( GEOMETRIC_REPRESENTATION_CONTEXT ( 3 ) GLOBAL_UNCERTAINTY_ASSIGNED_CONTEXT ( ( #231 ) ) GLOBAL_UNIT_ASSIGNED_CONTEXT ( ( #197, #50, #198 ) ) REPRESENTATION_CONTEXT ( 'NONE', 'WORKASPACE' ) );
#227 = LOCAL_TIME ( 7, 36, 17.00000000000000000, #142 ) ;
#228 = DIRECTION ( 'NONE',  ( -4.275831445896958607E-31, -1.000000000000000000, -1.224646799147353207E-16 ) ) ;
#229 = ORIENTED_EDGE ( 'NONE', *, *, #22, .F. ) ;
#230 = PLANE ( 'NONE',  #54 ) ;
#231 = UNCERTAINTY_MEASURE_WITH_UNIT (LENGTH_MEASURE( 1.000000000000000082E-05 ), #197, 'distance_accuracy_value', 'NONE');
#232 = EDGE_LOOP ( 'NONE', ( #113 ) ) ;
#233 = VERTEX_POINT ( 'NONE', #102 ) ;
#234 = APPLICATION_PROTOCOL_DEFINITION ( 'international standard', 'config_control_design', 1994, #165 ) ;
#235 = APPLICATION_PROTOCOL_DEFINITION ( 'international standard', 'config_control_design', 1994, #111 ) ;
#236 = COORDINATED_UNIVERSAL_TIME_OFFSET ( 1, 0, .AHEAD. ) ;
#237 = PLANE ( 'NONE',  #215 ) ;
#238 = APPROVAL_ROLE ( '' ) ;
#239 = CLOSED_SHELL ( 'NONE', ( #38, #171, #214, #242, #20, #89 ) ) ;
#240 = DIRECTION ( 'NONE',  ( 3.491481338843133355E-15, -0.0000000000000000000, 1.000000000000000000 ) ) ;
#241 = AXIS2_PLACEMENT_3D ( 'NONE', #93, #96, #209 ) ;
#242 = ADVANCED_FACE ( 'NONE', ( #100, #176 ), #194, .F. ) ;
#243 = DIRECTION ( 'NONE',  ( -3.491481338843133355E-15, 1.224646799147353207E-16, -1.000000000000000000 ) ) ;
ENDSEC;
END-ISO-10303-21;
