ISO-10303-21;
HEADER;
FILE_DESCRIPTION (( 'STEP AP203' ),
    '1' );
FILE_NAME ('63681.step',
    '2021-11-10T06:36:16',
    ( '' ),
    ( '' ),
    'SwSTEP 2.0',
    'SolidWorks 2019',
    '' );
FILE_SCHEMA (( 'CONFIG_CONTROL_DESIGN' ));
ENDSEC;

DATA;
#1 = PERSON_AND_ORGANIZATION ( #216, #96 ) ;
#2 = CARTESIAN_POINT ( 'NONE',  ( 0.2250000000000015044, 0.0000000000000000000, 0.4499999999999985123 ) ) ;
#3 = CC_DESIGN_APPROVAL ( #79, ( #118 ) ) ;
#4 = CARTESIAN_POINT ( 'NONE',  ( 1.571166602479407446E-15, 0.0000000000000000000, 0.4499999999999992895 ) ) ;
#5 = LOCAL_TIME ( 7, 36, 16.00000000000000000, #193 ) ;
#6 = DIRECTION ( 'NONE',  ( 1.000000000000000000, 0.0000000000000000000, -3.373073425510458853E-15 ) ) ;
#7 = ORIENTED_EDGE ( 'NONE', *, *, #22, .F. ) ;
#8 = CC_DESIGN_SECURITY_CLASSIFICATION ( #147, ( #29 ) ) ;
#9 = SECURITY_CLASSIFICATION_LEVEL ( 'unclassified' ) ;
#10 = CARTESIAN_POINT ( 'NONE',  ( 1.910423291111424580E-14, 0.0000000000000000000, 5.471669774825214994 ) ) ;
#11 = DIRECTION ( 'NONE',  ( -4.275831445896958607E-31, -1.000000000000000000, -1.224646799147353207E-16 ) ) ;
#12 = APPROVAL_STATUS ( 'not_yet_approved' ) ;
#13 = EDGE_LOOP ( 'NONE', ( #138 ) ) ;
#14 = PLANE ( 'NONE',  #123 ) ;
#15 = UNCERTAINTY_MEASURE_WITH_UNIT (LENGTH_MEASURE( 1.000000000000000082E-05 ), #175, 'distance_accuracy_value', 'NONE');
#16 = FACE_OUTER_BOUND ( 'NONE', #210, .T. ) ;
#17 = APPROVAL_PERSON_ORGANIZATION ( #130, #79, #116 ) ;
#18 = DIRECTION ( 'NONE',  ( 3.491481338843133355E-15, -0.0000000000000000000, 1.000000000000000000 ) ) ;
#19 = CALENDAR_DATE ( 2021, 10, 11 ) ;
#20 = CARTESIAN_POINT ( 'NONE',  ( 1.326762908760390423E-13, 1.199999999999994182, 38.00000000000000000 ) ) ;
#21 = CC_DESIGN_PERSON_AND_ORGANIZATION_ASSIGNMENT ( #195, #57, ( #29 ) ) ;
#22 = EDGE_CURVE ( 'NONE', #63, #63, #178, .T. ) ;
#23 = DIRECTION ( 'NONE',  ( 4.275831445896958607E-31, 1.000000000000000000, 1.224646799147353207E-16 ) ) ;
#24 = AXIS2_PLACEMENT_3D ( 'NONE', #204, #191, #171 ) ;
#25 = CARTESIAN_POINT ( 'NONE',  ( 0.2249999999999999500, 0.0000000000000000000, -7.855833012397048077E-16 ) ) ;
#26 = DATE_AND_TIME ( #234, #163 ) ;
#27 = ORIENTED_EDGE ( 'NONE', *, *, #42, .T. ) ;
#28 = APPROVAL_ROLE ( '' ) ;
#29 = PRODUCT_DEFINITION_FORMATION_WITH_SPECIFIED_SOURCE ( 'ANY', '', #168, .NOT_KNOWN. ) ;
#30 = CC_DESIGN_PERSON_AND_ORGANIZATION_ASSIGNMENT ( #211, #71, ( #147 ) ) ;
#31 = EDGE_LOOP ( 'NONE', ( #88 ) ) ;
#32 = AXIS2_PLACEMENT_3D ( 'NONE', #213, #108, #39 ) ;
#33 = PERSON_AND_ORGANIZATION_ROLE ( 'design_supplier' ) ;
#34 = DIRECTION ( 'NONE',  ( 3.491481338843133355E-15, -0.0000000000000000000, 1.000000000000000000 ) ) ;
#35 = PERSON_AND_ORGANIZATION ( #216, #96 ) ;
#36 = CARTESIAN_POINT ( 'NONE',  ( 1.571166602479408432E-15, 0.0000000000000000000, 0.4499999999999995670 ) ) ;
#37 = FACE_OUTER_BOUND ( 'NONE', #49, .T. ) ;
#38 = CARTESIAN_POINT ( 'NONE',  ( 0.0000000000000000000, 0.0000000000000000000, 0.0000000000000000000 ) ) ;
#39 = DIRECTION ( 'NONE',  ( 1.000000000000000000, 0.0000000000000000000, -3.373073425510458853E-15 ) ) ;
#40 = CIRCLE ( 'NONE', #170, 0.2931483474218599672 ) ;
#41 = ADVANCED_FACE ( 'NONE', ( #240 ), #56, .T. ) ;
#42 = EDGE_CURVE ( 'NONE', #67, #67, #81, .T. ) ;
#43 = APPLICATION_CONTEXT ( 'configuration controlled 3d designs of mechanical parts and assemblies' ) ;
#44 = CLOSED_SHELL ( 'NONE', ( #90, #173, #206, #132, #120, #161 ) ) ;
#45 = MECHANICAL_CONTEXT ( 'NONE', #135, 'mechanical' ) ;
#46 = CARTESIAN_POINT ( 'NONE',  ( 1.326762908760390423E-13, 8.998558695971069014E-33, 38.00000000000000000 ) ) ;
#47 = EDGE_LOOP ( 'NONE', ( #215 ) ) ;
#48 = VERTEX_POINT ( 'NONE', #86 ) ;
#49 = EDGE_LOOP ( 'NONE', ( #7 ) ) ;
#50 = APPROVAL_ROLE ( '' ) ;
#51 = PRODUCT_RELATED_PRODUCT_CATEGORY ( 'detail', '', ( #168 ) ) ;
#52 = CALENDAR_DATE ( 2021, 10, 11 ) ;
#53 = EDGE_LOOP ( 'NONE', ( #192 ) ) ;
#54 = CONICAL_SURFACE ( 'NONE', #187, 1.199999999999998845, 0.7853981633974450594 ) ;
#55 = SHAPE_DEFINITION_REPRESENTATION ( #166, #84 ) ;
#56 = PLANE ( 'NONE',  #223 ) ;
#57 = PERSON_AND_ORGANIZATION_ROLE ( 'creator' ) ;
#58 = CARTESIAN_POINT ( 'NONE',  ( 1.326762908760390423E-13, -4.653657836759941941E-15, 38.00000000000000000 ) ) ;
#59 = DIRECTION ( 'NONE',  ( -4.275831445896958607E-31, -1.000000000000000000, -1.224646799147353207E-16 ) ) ;
#60 = CARTESIAN_POINT ( 'NONE',  ( -6.413803915257457113E-31, 2.249659577954772199E-32, -1.836986451539393076E-16 ) ) ;
#61 = CIRCLE ( 'NONE', #105, 1.499999999999998446 ) ;
#62 = DIRECTION ( 'NONE',  ( -3.491481338843133355E-15, 1.224646799147353207E-16, -1.000000000000000000 ) ) ;
#63 = VERTEX_POINT ( 'NONE', #137 ) ;
#64 = ADVANCED_FACE ( 'NONE', ( #124, #152 ), #199, .T. ) ;
#65 = CIRCLE ( 'NONE', #212, 0.2249999999999999500 ) ;
#66 = AXIS2_PLACEMENT_3D ( 'NONE', #38, #62, #94 ) ;
#67 = VERTEX_POINT ( 'NONE', #20 ) ;
#68 = EDGE_LOOP ( 'NONE', ( #141 ) ) ;
#69 = VERTEX_POINT ( 'NONE', #189 ) ;
#70 = EDGE_LOOP ( 'NONE', ( #233 ) ) ;
#71 = PERSON_AND_ORGANIZATION_ROLE ( 'classification_officer' ) ;
#72 = CC_DESIGN_DATE_AND_TIME_ASSIGNMENT ( #26, #159, ( #118 ) ) ;
#73 = DATE_AND_TIME ( #52, #144 ) ;
#74 = FACE_BOUND ( 'NONE', #110, .T. ) ;
#75 = CARTESIAN_POINT ( 'NONE',  ( 1.571166602479409024E-15, -6.505213034913042628E-17, 0.4499999999999997335 ) ) ;
#76 = FACE_OUTER_BOUND ( 'NONE', #53, .T. ) ;
#77 = DIRECTION ( 'NONE',  ( 3.491481338843133355E-15, -1.224646799147353207E-16, 1.000000000000000000 ) ) ;
#78 = DESIGN_CONTEXT ( 'detailed design', #43, 'design' ) ;
#79 = APPROVAL ( #153, 'UNSPECIFIED' ) ;
#80 = EDGE_LOOP ( 'NONE', ( #201 ) ) ;
#81 = CIRCLE ( 'NONE', #203, 1.199999999999998845 ) ;
#82 = PERSON_AND_ORGANIZATION_ROLE ( 'design_owner' ) ;
#83 = DIRECTION ( 'NONE',  ( -3.491481338843133355E-15, 1.224646799147353207E-16, -1.000000000000000000 ) ) ;
#84 = ADVANCED_BREP_SHAPE_REPRESENTATION ( '63681', ( #136, #217, #24 ), #115 ) ;
#85 = APPROVAL_PERSON_ORGANIZATION ( #165, #200, #28 ) ;
#86 = CARTESIAN_POINT ( 'NONE',  ( 0.2931483474218632979, 0.0000000000000000000, 0.9676380902050272237 ) ) ;
#87 = CC_DESIGN_APPROVAL ( #200, ( #29 ) ) ;
#88 = ORIENTED_EDGE ( 'NONE', *, *, #119, .T. ) ;
#89 = CARTESIAN_POINT ( 'NONE',  ( 1.316288464743861212E-13, 1.499999999999994005, 37.69999999999999574 ) ) ;
#90 = ADVANCED_FACE ( 'NONE', ( #114, #129 ), #197, .T. ) ;
#91 = CARTESIAN_POINT ( 'NONE',  ( 1.316288464743861212E-13, -4.616918432785521081E-15, 37.69999999999999574 ) ) ;
#92 = DIRECTION ( 'NONE',  ( 3.491481338843133355E-15, -0.0000000000000000000, 1.000000000000000000 ) ) ;
#93 = ORIENTED_EDGE ( 'NONE', *, *, #42, .F. ) ;
#94 = DIRECTION ( 'NONE',  ( 4.275831445896958607E-31, 1.000000000000000000, 1.224646799147353207E-16 ) ) ;
#95 = DIRECTION ( 'NONE',  ( 3.491481338843133355E-15, -1.224646799147353207E-16, 1.000000000000000000 ) ) ;
#96 = ORGANIZATION ( 'UNSPECIFIED', 'UNSPECIFIED', '' ) ;
#97 = CONICAL_SURFACE ( 'NONE', #99, 1.499999999999996225, 0.2617993877991428020 ) ;
#98 = DATE_AND_TIME ( #19, #235 ) ;
#99 = AXIS2_PLACEMENT_3D ( 'NONE', #145, #92, #164 ) ;
#100 = VERTEX_POINT ( 'NONE', #2 ) ;
#101 = CC_DESIGN_DATE_AND_TIME_ASSIGNMENT ( #125, #237, ( #147 ) ) ;
#102 = DIRECTION ( 'NONE',  ( 3.491481338843133355E-15, -0.0000000000000000000, 1.000000000000000000 ) ) ;
#103 = AXIS2_PLACEMENT_3D ( 'NONE', #4, #18, #6 ) ;
#104 = CALENDAR_DATE ( 2021, 10, 11 ) ;
#105 = AXIS2_PLACEMENT_3D ( 'NONE', #91, #183, #162 ) ;
#106 = APPROVAL_PERSON_ORGANIZATION ( #35, #155, #50 ) ;
#107 = COORDINATED_UNIVERSAL_TIME_OFFSET ( 1, 0, .AHEAD. ) ;
#108 = DIRECTION ( 'NONE',  ( 3.491481338843133355E-15, -0.0000000000000000000, 1.000000000000000000 ) ) ;
#109 = DIRECTION ( 'NONE',  ( 3.491481338843133355E-15, -0.0000000000000000000, 1.000000000000000000 ) ) ;
#110 = EDGE_LOOP ( 'NONE', ( #207 ) ) ;
#111 = CC_DESIGN_PERSON_AND_ORGANIZATION_ASSIGNMENT ( #176, #82, ( #168 ) ) ;
#112 = EDGE_CURVE ( 'NONE', #69, #69, #133, .T. ) ;
#113 = DIRECTION ( 'NONE',  ( 3.491481338843133355E-15, -0.0000000000000000000, 1.000000000000000000 ) ) ;
#114 = FACE_OUTER_BOUND ( 'NONE', #31, .T. ) ;
#115 =( GEOMETRIC_REPRESENTATION_CONTEXT ( 3 ) GLOBAL_UNCERTAINTY_ASSIGNED_CONTEXT ( ( #15 ) ) GLOBAL_UNIT_ASSIGNED_CONTEXT ( ( #175, #121, #225 ) ) REPRESENTATION_CONTEXT ( 'NONE', 'WORKASPACE' ) );
#116 = APPROVAL_ROLE ( '' ) ;
#117 = APPLICATION_PROTOCOL_DEFINITION ( 'international standard', 'config_control_design', 1994, #135 ) ;
#118 = PRODUCT_DEFINITION ( 'UNKNOWN', '', #29, #78 ) ;
#119 = EDGE_CURVE ( 'NONE', #158, #158, #61, .T. ) ;
#120 = ADVANCED_FACE ( 'NONE', ( #74, #181 ), #97, .T. ) ;
#121 =( NAMED_UNIT ( * ) PLANE_ANGLE_UNIT ( ) SI_UNIT ( $, .RADIAN. ) );
#122 = ORIENTED_EDGE ( 'NONE', *, *, #22, .T. ) ;
#123 = AXIS2_PLACEMENT_3D ( 'NONE', #151, #221, #184 ) ;
#124 = FACE_OUTER_BOUND ( 'NONE', #68, .T. ) ;
#125 = DATE_AND_TIME ( #146, #242 ) ;
#126 = CARTESIAN_POINT ( 'NONE',  ( -1.786038389295302186E-30, 0.0000000000000000000, -5.115417256925931626E-16 ) ) ;
#127 = CARTESIAN_POINT ( 'NONE',  ( 3.378490334704664419E-15, 0.0000000000000000000, 0.9676380902050282229 ) ) ;
#128 = AXIS2_PLACEMENT_3D ( 'NONE', #10, #34, #148 ) ;
#129 = FACE_OUTER_BOUND ( 'NONE', #239, .T. ) ;
#130 = PERSON_AND_ORGANIZATION ( #216, #96 ) ;
#131 = VERTEX_POINT ( 'NONE', #25 ) ;
#132 = ADVANCED_FACE ( 'NONE', ( #236, #16 ), #219, .F. ) ;
#133 = CIRCLE ( 'NONE', #128, 1.499999999999996225 ) ;
#134 = CC_DESIGN_APPROVAL ( #155, ( #147 ) ) ;
#135 = APPLICATION_CONTEXT ( 'configuration controlled 3d designs of mechanical parts and assemblies' ) ;
#136 = MANIFOLD_SOLID_BREP ( 'Corps-Déplacer/Copier1[1]', #44 ) ;
#137 = CARTESIAN_POINT ( 'NONE',  ( 0.2250000000000015044, 0.0000000000000000000, 0.4499999999999985123 ) ) ;
#138 = ORIENTED_EDGE ( 'NONE', *, *, #119, .F. ) ;
#139 = CARTESIAN_POINT ( 'NONE',  ( 0.0000000000000000000, 0.0000000000000000000, 0.0000000000000000000 ) ) ;
#140 = EDGE_LOOP ( 'NONE', ( #122 ) ) ;
#141 = ORIENTED_EDGE ( 'NONE', *, *, #227, .T. ) ;
#142 = CC_DESIGN_PERSON_AND_ORGANIZATION_ASSIGNMENT ( #1, #143, ( #118 ) ) ;
#143 = PERSON_AND_ORGANIZATION_ROLE ( 'creator' ) ;
#144 = LOCAL_TIME ( 7, 36, 16.00000000000000000, #214 ) ;
#145 = CARTESIAN_POINT ( 'NONE',  ( 1.910423291111424580E-14, 0.0000000000000000000, 5.471669774825214994 ) ) ;
#146 = CALENDAR_DATE ( 2021, 10, 11 ) ;
#147 = SECURITY_CLASSIFICATION ( '', '', #9 ) ;
#148 = DIRECTION ( 'NONE',  ( 1.000000000000000000, 0.0000000000000000000, -3.469446951953622866E-15 ) ) ;
#149 = APPROVAL_STATUS ( 'not_yet_approved' ) ;
#150 = ORIENTED_EDGE ( 'NONE', *, *, #160, .F. ) ;
#151 = CARTESIAN_POINT ( 'NONE',  ( 1.571166602479409024E-15, -6.505213034913042628E-17, 0.4499999999999997335 ) ) ;
#152 = FACE_OUTER_BOUND ( 'NONE', #80, .T. ) ;
#153 = APPROVAL_STATUS ( 'not_yet_approved' ) ;
#154 = PLANE ( 'NONE',  #202 ) ;
#155 = APPROVAL ( #149, 'UNSPECIFIED' ) ;
#156 = ADVANCED_FACE ( 'NONE', ( #76 ), #220, .F. ) ;
#157 = CIRCLE ( 'NONE', #103, 0.2249999999999999500 ) ;
#158 = VERTEX_POINT ( 'NONE', #89 ) ;
#159 = DATE_TIME_ROLE ( 'creation_date' ) ;
#160 = EDGE_CURVE ( 'NONE', #48, #48, #40, .T. ) ;
#161 = ADVANCED_FACE ( 'NONE', ( #37 ), #14, .F. ) ;
#162 = DIRECTION ( 'NONE',  ( 0.0000000000000000000, 1.000000000000000000, 0.0000000000000000000 ) ) ;
#163 = LOCAL_TIME ( 7, 36, 16.00000000000000000, #208 ) ;
#164 = DIRECTION ( 'NONE',  ( 1.000000000000000000, 0.0000000000000000000, -3.469446951953622866E-15 ) ) ;
#165 = PERSON_AND_ORGANIZATION ( #216, #96 ) ;
#166 = PRODUCT_DEFINITION_SHAPE ( 'NONE', 'NONE',  #118 ) ;
#167 = DIRECTION ( 'NONE',  ( 1.000000000000000000, 0.0000000000000000000, -3.491481338843133750E-15 ) ) ;
#168 = PRODUCT ( '63681', '63681', '', ( #45 ) ) ;
#169 = FACE_OUTER_BOUND ( 'NONE', #13, .T. ) ;
#170 = AXIS2_PLACEMENT_3D ( 'NONE', #127, #113, #198 ) ;
#171 = DIRECTION ( 'NONE',  ( 1.000000000000000000, 0.0000000000000000000, 0.0000000000000000000 ) ) ;
#172 = APPROVAL_DATE_TIME ( #98, #79 ) ;
#173 = ADVANCED_FACE ( 'NONE', ( #169, #228 ), #54, .T. ) ;
#174 = CARTESIAN_POINT ( 'NONE',  ( 1.326762908760390423E-13, -4.653657836759941941E-15, 38.00000000000000000 ) ) ;
#175 =( LENGTH_UNIT ( ) NAMED_UNIT ( * ) SI_UNIT ( .MILLI., .METRE. ) );
#176 = PERSON_AND_ORGANIZATION ( #216, #96 ) ;
#177 = AXIS2_PLACEMENT_3D ( 'NONE', #36, #182, #167 ) ;
#178 = CIRCLE ( 'NONE', #32, 0.2249999999999999500 ) ;
#179 = PERSON_AND_ORGANIZATION ( #216, #96 ) ;
#180 = APPROVAL_DATE_TIME ( #232, #155 ) ;
#181 = FACE_OUTER_BOUND ( 'NONE', #47, .T. ) ;
#182 = DIRECTION ( 'NONE',  ( 3.491481338843133355E-15, -0.0000000000000000000, 1.000000000000000000 ) ) ;
#183 = DIRECTION ( 'NONE',  ( -3.491481338843133355E-15, 1.224646799147353207E-16, -1.000000000000000000 ) ) ;
#184 = DIRECTION ( 'NONE',  ( -4.275831445896958607E-31, -1.000000000000000000, -1.224646799147353207E-16 ) ) ;
#185 = CC_DESIGN_PERSON_AND_ORGANIZATION_ASSIGNMENT ( #179, #33, ( #29 ) ) ;
#186 = DIRECTION ( 'NONE',  ( 0.0000000000000000000, 1.000000000000000000, 0.0000000000000000000 ) ) ;
#187 = AXIS2_PLACEMENT_3D ( 'NONE', #174, #83, #186 ) ;
#188 = COORDINATED_UNIVERSAL_TIME_OFFSET ( 1, 0, .AHEAD. ) ;
#189 = CARTESIAN_POINT ( 'NONE',  ( 1.500000000000015099, 0.0000000000000000000, 5.471669774825209664 ) ) ;
#190 = AXIS2_PLACEMENT_3D ( 'NONE', #60, #95, #59 ) ;
#191 = DIRECTION ( 'NONE',  ( 0.0000000000000000000, 0.0000000000000000000, 1.000000000000000000 ) ) ;
#192 = ORIENTED_EDGE ( 'NONE', *, *, #227, .F. ) ;
#193 = COORDINATED_UNIVERSAL_TIME_OFFSET ( 1, 0, .AHEAD. ) ;
#194 = EDGE_LOOP ( 'NONE', ( #27 ) ) ;
#195 = PERSON_AND_ORGANIZATION ( #216, #96 ) ;
#196 = DIRECTION ( 'NONE',  ( -3.491481338843133355E-15, 1.224646799147353207E-16, -1.000000000000000000 ) ) ;
#197 = CYLINDRICAL_SURFACE ( 'NONE', #66, 1.499999999999996225 ) ;
#198 = DIRECTION ( 'NONE',  ( 1.000000000000000000, 0.0000000000000000000, -3.328628538481026713E-15 ) ) ;
#199 = CYLINDRICAL_SURFACE ( 'NONE', #231, 0.2249999999999999500 ) ;
#200 = APPROVAL ( #12, 'UNSPECIFIED' ) ;
#201 = ORIENTED_EDGE ( 'NONE', *, *, #222, .F. ) ;
#202 = AXIS2_PLACEMENT_3D ( 'NONE', #46, #230, #23 ) ;
#203 = AXIS2_PLACEMENT_3D ( 'NONE', #58, #196, #224 ) ;
#204 = CARTESIAN_POINT ( 'NONE',  ( 0.0000000000000000000, 0.0000000000000000000, 0.0000000000000000000 ) ) ;
#205 = FACE_OUTER_BOUND ( 'NONE', #209, .T. ) ;
#206 = ADVANCED_FACE ( 'NONE', ( #205 ), #154, .F. ) ;
#207 = ORIENTED_EDGE ( 'NONE', *, *, #160, .T. ) ;
#208 = COORDINATED_UNIVERSAL_TIME_OFFSET ( 1, 0, .AHEAD. ) ;
#209 = EDGE_LOOP ( 'NONE', ( #93 ) ) ;
#210 = EDGE_LOOP ( 'NONE', ( #150 ) ) ;
#211 = PERSON_AND_ORGANIZATION ( #216, #96 ) ;
#212 = AXIS2_PLACEMENT_3D ( 'NONE', #139, #102, #226 ) ;
#213 = CARTESIAN_POINT ( 'NONE',  ( 1.571166602479407446E-15, 0.0000000000000000000, 0.4499999999999992895 ) ) ;
#214 = COORDINATED_UNIVERSAL_TIME_OFFSET ( 1, 0, .AHEAD. ) ;
#215 = ORIENTED_EDGE ( 'NONE', *, *, #112, .F. ) ;
#216 = PERSON ( 'UNSPECIFIED', 'UNSPECIFIED', 'UNSPECIFIED', ('UNSPECIFIED'), ('UNSPECIFIED'), ('UNSPECIFIED') ) ;
#217 = MANIFOLD_SOLID_BREP ( 'Corps-Déplacer/Copier1[2]', #241 ) ;
#218 = APPROVAL_DATE_TIME ( #73, #200 ) ;
#219 = TOROIDAL_SURFACE ( 'NONE', #177, 2.225000000000000089, 2.000000000000000000 ) ;
#220 = PLANE ( 'NONE',  #190 ) ;
#221 = DIRECTION ( 'NONE',  ( 3.491481338843133355E-15, -1.224646799147353207E-16, 1.000000000000000000 ) ) ;
#222 = EDGE_CURVE ( 'NONE', #100, #100, #157, .T. ) ;
#223 = AXIS2_PLACEMENT_3D ( 'NONE', #75, #77, #11 ) ;
#224 = DIRECTION ( 'NONE',  ( 0.0000000000000000000, 1.000000000000000000, 0.0000000000000000000 ) ) ;
#225 =( NAMED_UNIT ( * ) SI_UNIT ( $, .STERADIAN. ) SOLID_ANGLE_UNIT ( ) );
#226 = DIRECTION ( 'NONE',  ( 1.000000000000000000, 0.0000000000000000000, -3.491481338843133355E-15 ) ) ;
#227 = EDGE_CURVE ( 'NONE', #131, #131, #65, .T. ) ;
#228 = FACE_BOUND ( 'NONE', #194, .T. ) ;
#229 = ORIENTED_EDGE ( 'NONE', *, *, #112, .T. ) ;
#230 = DIRECTION ( 'NONE',  ( -3.491481338843133355E-15, 1.224646799147353207E-16, -1.000000000000000000 ) ) ;
#231 = AXIS2_PLACEMENT_3D ( 'NONE', #126, #109, #238 ) ;
#232 = DATE_AND_TIME ( #104, #5 ) ;
#233 = ORIENTED_EDGE ( 'NONE', *, *, #222, .T. ) ;
#234 = CALENDAR_DATE ( 2021, 10, 11 ) ;
#235 = LOCAL_TIME ( 7, 36, 16.00000000000000000, #188 ) ;
#236 = FACE_OUTER_BOUND ( 'NONE', #140, .T. ) ;
#237 = DATE_TIME_ROLE ( 'classification_date' ) ;
#238 = DIRECTION ( 'NONE',  ( 1.000000000000000000, 0.0000000000000000000, -3.491481338843132961E-15 ) ) ;
#239 = EDGE_LOOP ( 'NONE', ( #229 ) ) ;
#240 = FACE_OUTER_BOUND ( 'NONE', #70, .T. ) ;
#241 = CLOSED_SHELL ( 'NONE', ( #41, #64, #156 ) ) ;
#242 = LOCAL_TIME ( 7, 36, 16.00000000000000000, #107 ) ;
#243 = APPLICATION_PROTOCOL_DEFINITION ( 'international standard', 'config_control_design', 1994, #43 ) ;
ENDSEC;
END-ISO-10303-21;
