ISO-10303-21;
HEADER;
FILE_DESCRIPTION (( 'STEP AP203' ),
    '1' );
FILE_NAME ('63680.step',
    '2021-11-10T06:36:16',
    ( '' ),
    ( '' ),
    'SwSTEP 2.0',
    'SolidWorks 2019',
    '' );
FILE_SCHEMA (( 'CONFIG_CONTROL_DESIGN' ));
ENDSEC;

DATA;
#1 = CARTESIAN_POINT ( 'NONE',  ( 1.222018468595095885E-15, -3.794707603699274147E-17, 0.3499999999999997558 ) ) ;
#2 = DIRECTION ( 'NONE',  ( 1.000000000000000000, 0.0000000000000000000, -3.491481338843133355E-15 ) ) ;
#3 = ADVANCED_FACE ( 'NONE', ( #199, #144 ), #92, .T. ) ;
#4 = AXIS2_PLACEMENT_3D ( 'NONE', #134, #187, #227 ) ;
#5 = PERSON_AND_ORGANIZATION_ROLE ( 'design_owner' ) ;
#6 = AXIS2_PLACEMENT_3D ( 'NONE', #219, #173, #81 ) ;
#7 = CARTESIAN_POINT ( 'NONE',  ( 0.1750000000000010159, 0.0000000000000000000, 0.3499999999999987566 ) ) ;
#8 = DATE_TIME_ROLE ( 'classification_date' ) ;
#9 = CARTESIAN_POINT ( 'NONE',  ( 3.029342200820351083E-15, 0.0000000000000000000, 0.8676380902050282451 ) ) ;
#10 = EDGE_LOOP ( 'NONE', ( #200 ) ) ;
#11 = ORIENTED_EDGE ( 'NONE', *, *, #21, .T. ) ;
#12 = ORIENTED_EDGE ( 'NONE', *, *, #239, .F. ) ;
#13 = CC_DESIGN_PERSON_AND_ORGANIZATION_ASSIGNMENT ( #70, #104, ( #94 ) ) ;
#14 = ADVANCED_FACE ( 'NONE', ( #68, #31 ), #184, .T. ) ;
#15 = FACE_OUTER_BOUND ( 'NONE', #222, .T. ) ;
#16 = CIRCLE ( 'NONE', #65, 0.1750000000000000167 ) ;
#17 = CYLINDRICAL_SURFACE ( 'NONE', #91, 0.1749999999999999056 ) ;
#18 = DIRECTION ( 'NONE',  ( 3.491481338843133355E-15, -1.224646799147353207E-16, 1.000000000000000000 ) ) ;
#19 = CC_DESIGN_SECURITY_CLASSIFICATION ( #152, ( #94 ) ) ;
#20 = APPROVAL ( #204, 'UNSPECIFIED' ) ;
#21 = EDGE_CURVE ( 'NONE', #132, #132, #122, .T. ) ;
#22 = FACE_OUTER_BOUND ( 'NONE', #126, .T. ) ;
#23 = CARTESIAN_POINT ( 'NONE',  ( 1.326762908760390423E-13, 8.998558695971069014E-33, 38.00000000000000000 ) ) ;
#24 = CALENDAR_DATE ( 2021, 10, 11 ) ;
#25 = DATE_AND_TIME ( #24, #176 ) ;
#26 = AXIS2_PLACEMENT_3D ( 'NONE', #117, #155, #243 ) ;
#27 = AXIS2_PLACEMENT_3D ( 'NONE', #23, #96, #40 ) ;
#28 = DATE_TIME_ROLE ( 'creation_date' ) ;
#29 = PERSON_AND_ORGANIZATION ( #192, #148 ) ;
#30 = DATE_AND_TIME ( #185, #203 ) ;
#31 = FACE_BOUND ( 'NONE', #71, .T. ) ;
#32 = DIRECTION ( 'NONE',  ( 3.491481338843133355E-15, -0.0000000000000000000, 1.000000000000000000 ) ) ;
#33 = ORIENTED_EDGE ( 'NONE', *, *, #135, .F. ) ;
#34 = ORIENTED_EDGE ( 'NONE', *, *, #135, .T. ) ;
#35 = CLOSED_SHELL ( 'NONE', ( #83, #100, #120 ) ) ;
#36 = DIRECTION ( 'NONE',  ( 3.491481338843133355E-15, -0.0000000000000000000, 1.000000000000000000 ) ) ;
#37 = CC_DESIGN_PERSON_AND_ORGANIZATION_ASSIGNMENT ( #113, #220, ( #94 ) ) ;
#38 = APPROVAL_PERSON_ORGANIZATION ( #67, #154, #230 ) ;
#39 = EDGE_CURVE ( 'NONE', #175, #175, #207, .T. ) ;
#40 = DIRECTION ( 'NONE',  ( 4.275831445896958607E-31, 1.000000000000000000, 1.224646799147353207E-16 ) ) ;
#41 = DIRECTION ( 'NONE',  ( 1.000000000000000000, 0.0000000000000000000, -3.491481338843133750E-15 ) ) ;
#42 = DIRECTION ( 'NONE',  ( 0.0000000000000000000, 1.000000000000000000, 0.0000000000000000000 ) ) ;
#43 = CALENDAR_DATE ( 2021, 10, 11 ) ;
#44 = COORDINATED_UNIVERSAL_TIME_OFFSET ( 1, 0, .AHEAD. ) ;
#45 = CLOSED_SHELL ( 'NONE', ( #150, #14, #57, #164, #3, #180 ) ) ;
#46 = VERTEX_POINT ( 'NONE', #232 ) ;
#47 = APPLICATION_CONTEXT ( 'configuration controlled 3d designs of mechanical parts and assemblies' ) ;
#48 = DIRECTION ( 'NONE',  ( -3.491481338843133355E-15, 1.224646799147353207E-16, -1.000000000000000000 ) ) ;
#49 = DATE_AND_TIME ( #55, #149 ) ;
#50 = EDGE_LOOP ( 'NONE', ( #34 ) ) ;
#51 = EDGE_CURVE ( 'NONE', #95, #95, #99, .T. ) ;
#52 = EDGE_LOOP ( 'NONE', ( #234 ) ) ;
#53 = CIRCLE ( 'NONE', #84, 1.199999999999998845 ) ;
#54 = MANIFOLD_SOLID_BREP ( 'Corps-Déplacer/Copier1[2]', #35 ) ;
#55 = CALENDAR_DATE ( 2021, 10, 11 ) ;
#56 = CARTESIAN_POINT ( 'NONE',  ( 1.316288464743861212E-13, -4.616918432785521081E-15, 37.69999999999999574 ) ) ;
#57 = ADVANCED_FACE ( 'NONE', ( #22 ), #76, .F. ) ;
#58 = CC_DESIGN_PERSON_AND_ORGANIZATION_ASSIGNMENT ( #177, #98, ( #197 ) ) ;
#59 = DIRECTION ( 'NONE',  ( -4.275831445896958607E-31, -1.000000000000000000, -1.224646799147353207E-16 ) ) ;
#60 = DIRECTION ( 'NONE',  ( 3.491481338843133355E-15, -0.0000000000000000000, 1.000000000000000000 ) ) ;
#61 = CARTESIAN_POINT ( 'NONE',  ( 0.0000000000000000000, 0.0000000000000000000, 0.0000000000000000000 ) ) ;
#62 = PERSON_AND_ORGANIZATION ( #192, #148 ) ;
#63 = PRODUCT ( '63680', '63680', '', ( #194 ) ) ;
#64 = APPROVAL_DATE_TIME ( #25, #154 ) ;
#65 = AXIS2_PLACEMENT_3D ( 'NONE', #97, #60, #41 ) ;
#66 = PRODUCT_RELATED_PRODUCT_CATEGORY ( 'detail', '', ( #63 ) ) ;
#67 = PERSON_AND_ORGANIZATION ( #192, #148 ) ;
#68 = FACE_OUTER_BOUND ( 'NONE', #74, .T. ) ;
#69 = COORDINATED_UNIVERSAL_TIME_OFFSET ( 1, 0, .AHEAD. ) ;
#70 = PERSON_AND_ORGANIZATION ( #192, #148 ) ;
#71 = EDGE_LOOP ( 'NONE', ( #128 ) ) ;
#72 = ORIENTED_EDGE ( 'NONE', *, *, #239, .T. ) ;
#73 = SECURITY_CLASSIFICATION_LEVEL ( 'unclassified' ) ;
#74 = EDGE_LOOP ( 'NONE', ( #12 ) ) ;
#75 = AXIS2_PLACEMENT_3D ( 'NONE', #124, #106, #105 ) ;
#76 = PLANE ( 'NONE',  #27 ) ;
#77 = DIRECTION ( 'NONE',  ( -4.275831445896958607E-31, -1.000000000000000000, -1.224646799147353207E-16 ) ) ;
#78 = AXIS2_PLACEMENT_3D ( 'NONE', #237, #163, #179 ) ;
#79 = FACE_OUTER_BOUND ( 'NONE', #235, .T. ) ;
#80 = FACE_OUTER_BOUND ( 'NONE', #50, .T. ) ;
#81 = DIRECTION ( 'NONE',  ( 1.000000000000000000, 0.0000000000000000000, 0.0000000000000000000 ) ) ;
#82 = CALENDAR_DATE ( 2021, 10, 11 ) ;
#83 = ADVANCED_FACE ( 'NONE', ( #228 ), #226, .T. ) ;
#84 = AXIS2_PLACEMENT_3D ( 'NONE', #153, #115, #42 ) ;
#85 = CC_DESIGN_DATE_AND_TIME_ASSIGNMENT ( #121, #28, ( #197 ) ) ;
#86 = VERTEX_POINT ( 'NONE', #142 ) ;
#87 = APPLICATION_PROTOCOL_DEFINITION ( 'international standard', 'config_control_design', 1994, #47 ) ;
#88 = APPROVAL_ROLE ( '' ) ;
#89 = DIRECTION ( 'NONE',  ( 1.000000000000000000, 0.0000000000000000000, -3.567212145117071145E-15 ) ) ;
#90 = CARTESIAN_POINT ( 'NONE',  ( 1.326762908760390423E-13, -4.653657836759941941E-15, 38.00000000000000000 ) ) ;
#91 = AXIS2_PLACEMENT_3D ( 'NONE', #208, #209, #172 ) ;
#92 = CONICAL_SURFACE ( 'NONE', #75, 1.499999999999996225, 0.2617993877991427465 ) ;
#93 = FACE_OUTER_BOUND ( 'NONE', #143, .T. ) ;
#94 = PRODUCT_DEFINITION_FORMATION_WITH_SPECIFIED_SOURCE ( 'ANY', '', #63, .NOT_KNOWN. ) ;
#95 = VERTEX_POINT ( 'NONE', #196 ) ;
#96 = DIRECTION ( 'NONE',  ( -3.491481338843133355E-15, 1.224646799147353207E-16, -1.000000000000000000 ) ) ;
#97 = CARTESIAN_POINT ( 'NONE',  ( 0.0000000000000000000, 0.0000000000000000000, 0.0000000000000000000 ) ) ;
#98 = PERSON_AND_ORGANIZATION_ROLE ( 'creator' ) ;
#99 = CIRCLE ( 'NONE', #133, 1.499999999999996225 ) ;
#100 = ADVANCED_FACE ( 'NONE', ( #80, #156 ), #17, .T. ) ;
#101 = PLANE ( 'NONE',  #26 ) ;
#102 = VERTEX_POINT ( 'NONE', #233 ) ;
#103 = APPROVAL_STATUS ( 'not_yet_approved' ) ;
#104 = PERSON_AND_ORGANIZATION_ROLE ( 'design_supplier' ) ;
#105 = DIRECTION ( 'NONE',  ( 1.000000000000000000, 0.0000000000000000000, -3.469446951953622866E-15 ) ) ;
#106 = DIRECTION ( 'NONE',  ( 3.491481338843133355E-15, -0.0000000000000000000, 1.000000000000000000 ) ) ;
#107 = AXIS2_PLACEMENT_3D ( 'NONE', #61, #206, #190 ) ;
#108 = EDGE_LOOP ( 'NONE', ( #11 ) ) ;
#109 = APPROVAL_PERSON_ORGANIZATION ( #145, #20, #88 ) ;
#110 = APPROVAL ( #103, 'UNSPECIFIED' ) ;
#111 = PERSON_AND_ORGANIZATION_ROLE ( 'classification_officer' ) ;
#112 = APPLICATION_CONTEXT ( 'configuration controlled 3d designs of mechanical parts and assemblies' ) ;
#113 = PERSON_AND_ORGANIZATION ( #192, #148 ) ;
#114 = UNCERTAINTY_MEASURE_WITH_UNIT (LENGTH_MEASURE( 1.000000000000000082E-05 ), #157, 'distance_accuracy_value', 'NONE');
#115 = DIRECTION ( 'NONE',  ( -3.491481338843133355E-15, 1.224646799147353207E-16, -1.000000000000000000 ) ) ;
#116 = DIRECTION ( 'NONE',  ( -3.491481338843133355E-15, 1.224646799147353207E-16, -1.000000000000000000 ) ) ;
#117 = CARTESIAN_POINT ( 'NONE',  ( -6.413803915257457113E-31, 2.249659577954772199E-32, -1.836986451539393076E-16 ) ) ;
#118 = DIRECTION ( 'NONE',  ( 0.0000000000000000000, 1.000000000000000000, 0.0000000000000000000 ) ) ;
#119 = APPROVAL_DATE_TIME ( #211, #110 ) ;
#120 = ADVANCED_FACE ( 'NONE', ( #79 ), #101, .F. ) ;
#121 = DATE_AND_TIME ( #82, #202 ) ;
#122 = CIRCLE ( 'NONE', #78, 0.1749999999999998224 ) ;
#123 =( NAMED_UNIT ( * ) PLANE_ANGLE_UNIT ( ) SI_UNIT ( $, .RADIAN. ) );
#124 = CARTESIAN_POINT ( 'NONE',  ( 1.940660406474201201E-14, 0.0000000000000000000, 5.558272315203664604 ) ) ;
#125 = SHAPE_DEFINITION_REPRESENTATION ( #229, #137 ) ;
#126 = EDGE_LOOP ( 'NONE', ( #223 ) ) ;
#127 = COORDINATED_UNIVERSAL_TIME_OFFSET ( 1, 0, .AHEAD. ) ;
#128 = ORIENTED_EDGE ( 'NONE', *, *, #213, .T. ) ;
#129 = LOCAL_TIME ( 7, 36, 16.00000000000000000, #69 ) ;
#130 = EDGE_CURVE ( 'NONE', #159, #159, #186, .T. ) ;
#131 = CC_DESIGN_APPROVAL ( #110, ( #94 ) ) ;
#132 = VERTEX_POINT ( 'NONE', #193 ) ;
#133 = AXIS2_PLACEMENT_3D ( 'NONE', #161, #181, #242 ) ;
#134 = CARTESIAN_POINT ( 'NONE',  ( 1.222018468595094505E-15, 0.0000000000000000000, 0.3499999999999993672 ) ) ;
#135 = EDGE_CURVE ( 'NONE', #102, #102, #16, .T. ) ;
#136 = FACE_OUTER_BOUND ( 'NONE', #146, .T. ) ;
#137 = ADVANCED_BREP_SHAPE_REPRESENTATION ( '63680', ( #217, #54, #6 ), #212 ) ;
#138 = PLANE ( 'NONE',  #158 ) ;
#139 =( NAMED_UNIT ( * ) SI_UNIT ( $, .STERADIAN. ) SOLID_ANGLE_UNIT ( ) );
#140 = AXIS2_PLACEMENT_3D ( 'NONE', #56, #116, #118 ) ;
#141 = CC_DESIGN_APPROVAL ( #20, ( #152 ) ) ;
#142 = CARTESIAN_POINT ( 'NONE',  ( 1.326762908760390423E-13, 1.199999999999994182, 38.00000000000000000 ) ) ;
#143 = EDGE_LOOP ( 'NONE', ( #236 ) ) ;
#144 = FACE_OUTER_BOUND ( 'NONE', #52, .T. ) ;
#145 = PERSON_AND_ORGANIZATION ( #192, #148 ) ;
#146 = EDGE_LOOP ( 'NONE', ( #72 ) ) ;
#147 = CC_DESIGN_PERSON_AND_ORGANIZATION_ASSIGNMENT ( #205, #111, ( #152 ) ) ;
#148 = ORGANIZATION ( 'UNSPECIFIED', 'UNSPECIFIED', '' ) ;
#149 = LOCAL_TIME ( 7, 36, 16.00000000000000000, #240 ) ;
#150 = ADVANCED_FACE ( 'NONE', ( #136, #93 ), #167, .T. ) ;
#151 = FACE_OUTER_BOUND ( 'NONE', #108, .T. ) ;
#152 = SECURITY_CLASSIFICATION ( '', '', #73 ) ;
#153 = CARTESIAN_POINT ( 'NONE',  ( 1.326762908760390423E-13, -4.653657836759941941E-15, 38.00000000000000000 ) ) ;
#154 = APPROVAL ( #216, 'UNSPECIFIED' ) ;
#155 = DIRECTION ( 'NONE',  ( 3.491481338843133355E-15, -1.224646799147353207E-16, 1.000000000000000000 ) ) ;
#156 = FACE_OUTER_BOUND ( 'NONE', #182, .T. ) ;
#157 =( LENGTH_UNIT ( ) NAMED_UNIT ( * ) SI_UNIT ( .MILLI., .METRE. ) );
#158 = AXIS2_PLACEMENT_3D ( 'NONE', #170, #225, #77 ) ;
#159 = VERTEX_POINT ( 'NONE', #7 ) ;
#160 = APPLICATION_PROTOCOL_DEFINITION ( 'international standard', 'config_control_design', 1994, #112 ) ;
#161 = CARTESIAN_POINT ( 'NONE',  ( 1.940660406474201201E-14, 0.0000000000000000000, 5.558272315203664604 ) ) ;
#162 = APPROVAL_DATE_TIME ( #30, #20 ) ;
#163 = DIRECTION ( 'NONE',  ( 3.491481338843133355E-15, -0.0000000000000000000, 1.000000000000000000 ) ) ;
#164 = ADVANCED_FACE ( 'NONE', ( #151, #15 ), #168, .F. ) ;
#165 = ORIENTED_EDGE ( 'NONE', *, *, #39, .F. ) ;
#166 = AXIS2_PLACEMENT_3D ( 'NONE', #9, #32, #89 ) ;
#167 = CYLINDRICAL_SURFACE ( 'NONE', #107, 1.499999999999996225 ) ;
#168 = TOROIDAL_SURFACE ( 'NONE', #189, 2.174999999999999822, 2.000000000000000000 ) ;
#169 = DESIGN_CONTEXT ( 'detailed design', #112, 'design' ) ;
#170 = CARTESIAN_POINT ( 'NONE',  ( 1.222018468595095885E-15, -3.794707603699274147E-17, 0.3499999999999997558 ) ) ;
#171 = CC_DESIGN_DATE_AND_TIME_ASSIGNMENT ( #49, #8, ( #152 ) ) ;
#172 = DIRECTION ( 'NONE',  ( 1.000000000000000000, 0.0000000000000000000, -3.491481338843133355E-15 ) ) ;
#173 = DIRECTION ( 'NONE',  ( 0.0000000000000000000, 0.0000000000000000000, 1.000000000000000000 ) ) ;
#174 = COORDINATED_UNIVERSAL_TIME_OFFSET ( 1, 0, .AHEAD. ) ;
#175 = VERTEX_POINT ( 'NONE', #188 ) ;
#176 = LOCAL_TIME ( 7, 36, 16.00000000000000000, #44 ) ;
#177 = PERSON_AND_ORGANIZATION ( #192, #148 ) ;
#178 = APPROVAL_ROLE ( '' ) ;
#179 = DIRECTION ( 'NONE',  ( 1.000000000000000000, 0.0000000000000000000, -3.407492542097303087E-15 ) ) ;
#180 = ADVANCED_FACE ( 'NONE', ( #191 ), #138, .F. ) ;
#181 = DIRECTION ( 'NONE',  ( 3.491481338843133355E-15, -0.0000000000000000000, 1.000000000000000000 ) ) ;
#182 = EDGE_LOOP ( 'NONE', ( #183 ) ) ;
#183 = ORIENTED_EDGE ( 'NONE', *, *, #130, .F. ) ;
#184 = CONICAL_SURFACE ( 'NONE', #215, 1.199999999999998845, 0.7853981633974450594 ) ;
#185 = CALENDAR_DATE ( 2021, 10, 11 ) ;
#186 = CIRCLE ( 'NONE', #4, 0.1749999999999998224 ) ;
#187 = DIRECTION ( 'NONE',  ( 3.491481338843133355E-15, -0.0000000000000000000, 1.000000000000000000 ) ) ;
#188 = CARTESIAN_POINT ( 'NONE',  ( 0.2431483474218628649, 0.0000000000000000000, 0.8676380902050273569 ) ) ;
#189 = AXIS2_PLACEMENT_3D ( 'NONE', #210, #36, #2 ) ;
#190 = DIRECTION ( 'NONE',  ( 4.275831445896958607E-31, 1.000000000000000000, 1.224646799147353207E-16 ) ) ;
#191 = FACE_OUTER_BOUND ( 'NONE', #238, .T. ) ;
#192 = PERSON ( 'UNSPECIFIED', 'UNSPECIFIED', 'UNSPECIFIED', ('UNSPECIFIED'), ('UNSPECIFIED'), ('UNSPECIFIED') ) ;
#193 = CARTESIAN_POINT ( 'NONE',  ( 0.1750000000000010159, 0.0000000000000000000, 0.3499999999999987566 ) ) ;
#194 = MECHANICAL_CONTEXT ( 'NONE', #47, 'mechanical' ) ;
#195 = AXIS2_PLACEMENT_3D ( 'NONE', #1, #18, #59 ) ;
#196 = CARTESIAN_POINT ( 'NONE',  ( 1.500000000000015321, 0.0000000000000000000, 5.558272315203659275 ) ) ;
#197 = PRODUCT_DEFINITION ( 'UNKNOWN', '', #94, #169 ) ;
#198 = EDGE_LOOP ( 'NONE', ( #218 ) ) ;
#199 = FACE_BOUND ( 'NONE', #198, .T. ) ;
#200 = ORIENTED_EDGE ( 'NONE', *, *, #130, .T. ) ;
#201 = ORIENTED_EDGE ( 'NONE', *, *, #21, .F. ) ;
#202 = LOCAL_TIME ( 7, 36, 16.00000000000000000, #174 ) ;
#203 = LOCAL_TIME ( 7, 36, 16.00000000000000000, #127 ) ;
#204 = APPROVAL_STATUS ( 'not_yet_approved' ) ;
#205 = PERSON_AND_ORGANIZATION ( #192, #148 ) ;
#206 = DIRECTION ( 'NONE',  ( -3.491481338843133355E-15, 1.224646799147353207E-16, -1.000000000000000000 ) ) ;
#207 = CIRCLE ( 'NONE', #166, 0.2431483474218598395 ) ;
#208 = CARTESIAN_POINT ( 'NONE',  ( -1.786038389295302186E-30, 0.0000000000000000000, -5.115417256925931626E-16 ) ) ;
#209 = DIRECTION ( 'NONE',  ( 3.491481338843133355E-15, -0.0000000000000000000, 1.000000000000000000 ) ) ;
#210 = CARTESIAN_POINT ( 'NONE',  ( 1.222018468595095294E-15, 0.0000000000000000000, 0.3499999999999996447 ) ) ;
#211 = DATE_AND_TIME ( #43, #129 ) ;
#212 =( GEOMETRIC_REPRESENTATION_CONTEXT ( 3 ) GLOBAL_UNCERTAINTY_ASSIGNED_CONTEXT ( ( #114 ) ) GLOBAL_UNIT_ASSIGNED_CONTEXT ( ( #157, #123, #139 ) ) REPRESENTATION_CONTEXT ( 'NONE', 'WORKASPACE' ) );
#213 = EDGE_CURVE ( 'NONE', #86, #86, #53, .T. ) ;
#214 = CC_DESIGN_PERSON_AND_ORGANIZATION_ASSIGNMENT ( #62, #5, ( #63 ) ) ;
#215 = AXIS2_PLACEMENT_3D ( 'NONE', #90, #48, #221 ) ;
#216 = APPROVAL_STATUS ( 'not_yet_approved' ) ;
#217 = MANIFOLD_SOLID_BREP ( 'Corps-Déplacer/Copier1[1]', #45 ) ;
#218 = ORIENTED_EDGE ( 'NONE', *, *, #39, .T. ) ;
#219 = CARTESIAN_POINT ( 'NONE',  ( 0.0000000000000000000, 0.0000000000000000000, 0.0000000000000000000 ) ) ;
#220 = PERSON_AND_ORGANIZATION_ROLE ( 'creator' ) ;
#221 = DIRECTION ( 'NONE',  ( 0.0000000000000000000, 1.000000000000000000, 0.0000000000000000000 ) ) ;
#222 = EDGE_LOOP ( 'NONE', ( #165 ) ) ;
#223 = ORIENTED_EDGE ( 'NONE', *, *, #213, .F. ) ;
#224 = CIRCLE ( 'NONE', #140, 1.499999999999998446 ) ;
#225 = DIRECTION ( 'NONE',  ( 3.491481338843133355E-15, -1.224646799147353207E-16, 1.000000000000000000 ) ) ;
#226 = PLANE ( 'NONE',  #195 ) ;
#227 = DIRECTION ( 'NONE',  ( 1.000000000000000000, 0.0000000000000000000, -3.407492542097303087E-15 ) ) ;
#228 = FACE_OUTER_BOUND ( 'NONE', #10, .T. ) ;
#229 = PRODUCT_DEFINITION_SHAPE ( 'NONE', 'NONE',  #197 ) ;
#230 = APPROVAL_ROLE ( '' ) ;
#231 = APPROVAL_PERSON_ORGANIZATION ( #29, #110, #178 ) ;
#232 = CARTESIAN_POINT ( 'NONE',  ( 1.316288464743861212E-13, 1.499999999999994005, 37.69999999999999574 ) ) ;
#233 = CARTESIAN_POINT ( 'NONE',  ( 0.1750000000000000167, 0.0000000000000000000, -6.110092342975484358E-16 ) ) ;
#234 = ORIENTED_EDGE ( 'NONE', *, *, #51, .F. ) ;
#235 = EDGE_LOOP ( 'NONE', ( #33 ) ) ;
#236 = ORIENTED_EDGE ( 'NONE', *, *, #51, .T. ) ;
#237 = CARTESIAN_POINT ( 'NONE',  ( 1.222018468595094505E-15, 0.0000000000000000000, 0.3499999999999993672 ) ) ;
#238 = EDGE_LOOP ( 'NONE', ( #201 ) ) ;
#239 = EDGE_CURVE ( 'NONE', #46, #46, #224, .T. ) ;
#240 = COORDINATED_UNIVERSAL_TIME_OFFSET ( 1, 0, .AHEAD. ) ;
#241 = CC_DESIGN_APPROVAL ( #154, ( #197 ) ) ;
#242 = DIRECTION ( 'NONE',  ( 1.000000000000000000, 0.0000000000000000000, -3.469446951953622866E-15 ) ) ;
#243 = DIRECTION ( 'NONE',  ( -4.275831445896958607E-31, -1.000000000000000000, -1.224646799147353207E-16 ) ) ;
ENDSEC;
END-ISO-10303-21;
