ISO-10303-21;
HEADER;
FILE_DESCRIPTION (( 'STEP AP203' ),
    '1' );
FILE_NAME ('63679.step',
    '2021-11-10T06:36:15',
    ( '' ),
    ( '' ),
    'SwSTEP 2.0',
    'SolidWorks 2019',
    '' );
FILE_SCHEMA (( 'CONFIG_CONTROL_DESIGN' ));
ENDSEC;

DATA;
#1 = APPLICATION_CONTEXT ( 'configuration controlled 3d designs of mechanical parts and assemblies' ) ;
#2 = DIRECTION ( 'NONE',  ( 3.491481338843133355E-15, -0.0000000000000000000, 1.000000000000000000 ) ) ;
#3 = EDGE_LOOP ( 'NONE', ( #196 ) ) ;
#4 = CIRCLE ( 'NONE', #153, 0.1499999999999999667 ) ;
#5 = CARTESIAN_POINT ( 'NONE',  ( 1.326762908760390423E-13, -4.653657836759941941E-15, 38.00000000000000000 ) ) ;
#6 = DIRECTION ( 'NONE',  ( -3.491481338843133355E-15, 1.224646799147353207E-16, -1.000000000000000000 ) ) ;
#7 =( GEOMETRIC_REPRESENTATION_CONTEXT ( 3 ) GLOBAL_UNCERTAINTY_ASSIGNED_CONTEXT ( ( #117 ) ) GLOBAL_UNIT_ASSIGNED_CONTEXT ( ( #200, #61, #206 ) ) REPRESENTATION_CONTEXT ( 'NONE', 'WORKASPACE' ) );
#8 = CC_DESIGN_PERSON_AND_ORGANIZATION_ASSIGNMENT ( #170, #39, ( #59 ) ) ;
#9 = ORIENTED_EDGE ( 'NONE', *, *, #62, .T. ) ;
#10 = CONICAL_SURFACE ( 'NONE', #120, 1.199999999999998845, 0.7853981633974450594 ) ;
#11 = CARTESIAN_POINT ( 'NONE',  ( 0.1500000000000010214, 0.0000000000000000000, 0.2999999999999987677 ) ) ;
#12 = CC_DESIGN_DATE_AND_TIME_ASSIGNMENT ( #75, #131, ( #59 ) ) ;
#13 = LOCAL_TIME ( 7, 36, 15.00000000000000000, #115 ) ;
#14 = PERSON_AND_ORGANIZATION_ROLE ( 'creator' ) ;
#15 = CARTESIAN_POINT ( 'NONE',  ( -1.786038389295302186E-30, 0.0000000000000000000, -5.115417256925931626E-16 ) ) ;
#16 = AXIS2_PLACEMENT_3D ( 'NONE', #159, #85, #156 ) ;
#17 = VERTEX_POINT ( 'NONE', #73 ) ;
#18 = COORDINATED_UNIVERSAL_TIME_OFFSET ( 1, 0, .AHEAD. ) ;
#19 = DIRECTION ( 'NONE',  ( 3.491481338843133355E-15, -0.0000000000000000000, 1.000000000000000000 ) ) ;
#20 = PERSON_AND_ORGANIZATION_ROLE ( 'design_owner' ) ;
#21 = COORDINATED_UNIVERSAL_TIME_OFFSET ( 1, 0, .AHEAD. ) ;
#22 = ADVANCED_FACE ( 'NONE', ( #219, #173 ), #10, .T. ) ;
#23 = EDGE_LOOP ( 'NONE', ( #100 ) ) ;
#24 = SECURITY_CLASSIFICATION ( '', '', #99 ) ;
#25 = EDGE_LOOP ( 'NONE', ( #175 ) ) ;
#26 = EDGE_LOOP ( 'NONE', ( #228 ) ) ;
#27 = ADVANCED_FACE ( 'NONE', ( #28, #216 ), #123, .T. ) ;
#28 = FACE_OUTER_BOUND ( 'NONE', #26, .T. ) ;
#29 = PLANE ( 'NONE',  #91 ) ;
#30 = CIRCLE ( 'NONE', #220, 1.499999999999996225 ) ;
#31 = EDGE_LOOP ( 'NONE', ( #233 ) ) ;
#32 = ADVANCED_FACE ( 'NONE', ( #198 ), #217, .F. ) ;
#33 = DIRECTION ( 'NONE',  ( 3.491481338843133355E-15, -0.0000000000000000000, 1.000000000000000000 ) ) ;
#34 = CARTESIAN_POINT ( 'NONE',  ( 0.1500000000000010214, 0.0000000000000000000, 0.2999999999999987677 ) ) ;
#35 = CALENDAR_DATE ( 2021, 10, 11 ) ;
#36 = APPLICATION_PROTOCOL_DEFINITION ( 'international standard', 'config_control_design', 1994, #1 ) ;
#37 = APPROVAL_DATE_TIME ( #154, #102 ) ;
#38 = VERTEX_POINT ( 'NONE', #34 ) ;
#39 = PERSON_AND_ORGANIZATION_ROLE ( 'creator' ) ;
#40 = DIRECTION ( 'NONE',  ( 0.0000000000000000000, 1.000000000000000000, 0.0000000000000000000 ) ) ;
#41 = DATE_AND_TIME ( #92, #130 ) ;
#42 = CC_DESIGN_SECURITY_CLASSIFICATION ( #24, ( #87 ) ) ;
#43 = APPROVAL_PERSON_ORGANIZATION ( #164, #227, #147 ) ;
#44 = AXIS2_PLACEMENT_3D ( 'NONE', #86, #6, #67 ) ;
#45 = ORIENTED_EDGE ( 'NONE', *, *, #190, .F. ) ;
#46 = AXIS2_PLACEMENT_3D ( 'NONE', #127, #107, #40 ) ;
#47 = FACE_OUTER_BOUND ( 'NONE', #230, .T. ) ;
#48 = CC_DESIGN_PERSON_AND_ORGANIZATION_ASSIGNMENT ( #58, #235, ( #87 ) ) ;
#49 = DIRECTION ( 'NONE',  ( 3.491481338843133355E-15, -1.224646799147353207E-16, 1.000000000000000000 ) ) ;
#50 = CARTESIAN_POINT ( 'NONE',  ( 1.326762908760390423E-13, 8.998558695971069014E-33, 38.00000000000000000 ) ) ;
#51 = DIRECTION ( 'NONE',  ( 0.0000000000000000000, 1.000000000000000000, 0.0000000000000000000 ) ) ;
#52 = LOCAL_TIME ( 7, 36, 15.00000000000000000, #205 ) ;
#53 = CARTESIAN_POINT ( 'NONE',  ( 1.047444401652937640E-15, 0.0000000000000000000, 0.2999999999999993228 ) ) ;
#54 = DIRECTION ( 'NONE',  ( 1.000000000000000000, 0.0000000000000000000, -3.469446951953622866E-15 ) ) ;
#55 = PRODUCT ( '63679', '63679', '', ( #241 ) ) ;
#56 = CARTESIAN_POINT ( 'NONE',  ( 1.955778964155589354E-14, 0.0000000000000000000, 5.601573585392888965 ) ) ;
#57 = CIRCLE ( 'NONE', #46, 1.199999999999998845 ) ;
#58 = PERSON_AND_ORGANIZATION ( #179, #66 ) ;
#59 = PRODUCT_DEFINITION ( 'UNKNOWN', '', #87, #211 ) ;
#60 = APPROVAL_DATE_TIME ( #161, #171 ) ;
#61 =( NAMED_UNIT ( * ) PLANE_ANGLE_UNIT ( ) SI_UNIT ( $, .RADIAN. ) );
#62 = EDGE_CURVE ( 'NONE', #70, #70, #4, .T. ) ;
#63 = FACE_OUTER_BOUND ( 'NONE', #194, .T. ) ;
#64 = FACE_OUTER_BOUND ( 'NONE', #31, .T. ) ;
#65 = EDGE_CURVE ( 'NONE', #90, #90, #177, .T. ) ;
#66 = ORGANIZATION ( 'UNSPECIFIED', 'UNSPECIFIED', '' ) ;
#67 = DIRECTION ( 'NONE',  ( 4.275831445896958607E-31, 1.000000000000000000, 1.224646799147353207E-16 ) ) ;
#68 = CARTESIAN_POINT ( 'NONE',  ( 1.047444401652938626E-15, 0.0000000000000000000, 0.2999999999999996003 ) ) ;
#69 = EDGE_LOOP ( 'NONE', ( #45 ) ) ;
#70 = VERTEX_POINT ( 'NONE', #11 ) ;
#71 = AXIS2_PLACEMENT_3D ( 'NONE', #50, #157, #229 ) ;
#72 = CARTESIAN_POINT ( 'NONE',  ( 1.047444401652939218E-15, -3.252606517456520698E-17, 0.2999999999999997669 ) ) ;
#73 = CARTESIAN_POINT ( 'NONE',  ( 1.326762908760390423E-13, 1.199999999999994182, 38.00000000000000000 ) ) ;
#74 = ADVANCED_FACE ( 'NONE', ( #63, #138 ), #79, .F. ) ;
#75 = DATE_AND_TIME ( #111, #52 ) ;
#76 = FACE_OUTER_BOUND ( 'NONE', #3, .T. ) ;
#77 = AXIS2_PLACEMENT_3D ( 'NONE', #53, #199, #97 ) ;
#78 = VERTEX_POINT ( 'NONE', #152 ) ;
#79 = TOROIDAL_SURFACE ( 'NONE', #214, 2.149999999999999911, 2.000000000000000000 ) ;
#80 = ADVANCED_FACE ( 'NONE', ( #218 ), #192, .F. ) ;
#81 = APPROVAL_ROLE ( '' ) ;
#82 = CC_DESIGN_PERSON_AND_ORGANIZATION_ASSIGNMENT ( #188, #20, ( #55 ) ) ;
#83 = CIRCLE ( 'NONE', #77, 0.1499999999999999667 ) ;
#84 = DIRECTION ( 'NONE',  ( 1.000000000000000000, 0.0000000000000000000, -3.614007241618349165E-15 ) ) ;
#85 = DIRECTION ( 'NONE',  ( -3.491481338843133355E-15, 1.224646799147353207E-16, -1.000000000000000000 ) ) ;
#86 = CARTESIAN_POINT ( 'NONE',  ( 0.0000000000000000000, 0.0000000000000000000, 0.0000000000000000000 ) ) ;
#87 = PRODUCT_DEFINITION_FORMATION_WITH_SPECIFIED_SOURCE ( 'ANY', '', #55, .NOT_KNOWN. ) ;
#88 = CARTESIAN_POINT ( 'NONE',  ( 1.047444401652937640E-15, 0.0000000000000000000, 0.2999999999999993228 ) ) ;
#89 = ORIENTED_EDGE ( 'NONE', *, *, #190, .T. ) ;
#90 = VERTEX_POINT ( 'NONE', #134 ) ;
#91 = AXIS2_PLACEMENT_3D ( 'NONE', #105, #139, #122 ) ;
#92 = CALENDAR_DATE ( 2021, 10, 11 ) ;
#93 = PRODUCT_DEFINITION_SHAPE ( 'NONE', 'NONE',  #59 ) ;
#94 = CARTESIAN_POINT ( 'NONE',  ( 2.854768133878194415E-15, 0.0000000000000000000, 0.8176380902050282007 ) ) ;
#95 = ADVANCED_FACE ( 'NONE', ( #64 ), #29, .F. ) ;
#96 = CALENDAR_DATE ( 2021, 10, 11 ) ;
#97 = DIRECTION ( 'NONE',  ( 1.000000000000000000, 0.0000000000000000000, -3.614007241618349165E-15 ) ) ;
#98 = APPLICATION_PROTOCOL_DEFINITION ( 'international standard', 'config_control_design', 1994, #243 ) ;
#99 = SECURITY_CLASSIFICATION_LEVEL ( 'unclassified' ) ;
#100 = ORIENTED_EDGE ( 'NONE', *, *, #155, .F. ) ;
#101 = LOCAL_TIME ( 7, 36, 15.00000000000000000, #18 ) ;
#102 = APPROVAL ( #223, 'UNSPECIFIED' ) ;
#103 = EDGE_LOOP ( 'NONE', ( #195 ) ) ;
#104 = ORIENTED_EDGE ( 'NONE', *, *, #151, .T. ) ;
#105 = CARTESIAN_POINT ( 'NONE',  ( -6.413803915257457113E-31, 2.249659577954772199E-32, -1.836986451539393076E-16 ) ) ;
#106 = CARTESIAN_POINT ( 'NONE',  ( 1.047444401652939218E-15, -3.252606517456520698E-17, 0.2999999999999997669 ) ) ;
#107 = DIRECTION ( 'NONE',  ( -3.491481338843133355E-15, 1.224646799147353207E-16, -1.000000000000000000 ) ) ;
#108 = CARTESIAN_POINT ( 'NONE',  ( 1.955778964155589354E-14, 0.0000000000000000000, 5.601573585392888965 ) ) ;
#109 = PERSON_AND_ORGANIZATION ( #179, #66 ) ;
#110 = DIRECTION ( 'NONE',  ( 3.491481338843133355E-15, -0.0000000000000000000, 1.000000000000000000 ) ) ;
#111 = CALENDAR_DATE ( 2021, 10, 11 ) ;
#112 = DIRECTION ( 'NONE',  ( 1.000000000000000000, 0.0000000000000000000, -3.479015677676419144E-15 ) ) ;
#113 = DATE_TIME_ROLE ( 'classification_date' ) ;
#114 = CIRCLE ( 'NONE', #207, 0.1499999999999999667 ) ;
#115 = COORDINATED_UNIVERSAL_TIME_OFFSET ( 1, 0, .AHEAD. ) ;
#116 = CLOSED_SHELL ( 'NONE', ( #27, #22, #80, #74, #135, #32 ) ) ;
#117 = UNCERTAINTY_MEASURE_WITH_UNIT (LENGTH_MEASURE( 1.000000000000000082E-05 ), #200, 'distance_accuracy_value', 'NONE');
#118 = ORIENTED_EDGE ( 'NONE', *, *, #232, .T. ) ;
#119 = EDGE_LOOP ( 'NONE', ( #118 ) ) ;
#120 = AXIS2_PLACEMENT_3D ( 'NONE', #5, #144, #51 ) ;
#121 = DIRECTION ( 'NONE',  ( -4.275831445896958607E-31, -1.000000000000000000, -1.224646799147353207E-16 ) ) ;
#122 = DIRECTION ( 'NONE',  ( -4.275831445896958607E-31, -1.000000000000000000, -1.224646799147353207E-16 ) ) ;
#123 = CYLINDRICAL_SURFACE ( 'NONE', #44, 1.499999999999996225 ) ;
#124 = MANIFOLD_SOLID_BREP ( 'Corps-Déplacer/Copier1[2]', #172 ) ;
#125 = DIRECTION ( 'NONE',  ( 1.000000000000000000, 0.0000000000000000000, -3.491481338843132961E-15 ) ) ;
#126 = CC_DESIGN_DATE_AND_TIME_ASSIGNMENT ( #128, #113, ( #24 ) ) ;
#127 = CARTESIAN_POINT ( 'NONE',  ( 1.326762908760390423E-13, -4.653657836759941941E-15, 38.00000000000000000 ) ) ;
#128 = DATE_AND_TIME ( #237, #13 ) ;
#129 = DIRECTION ( 'NONE',  ( 3.491481338843133355E-15, -0.0000000000000000000, 1.000000000000000000 ) ) ;
#130 = LOCAL_TIME ( 7, 36, 15.00000000000000000, #150 ) ;
#131 = DATE_TIME_ROLE ( 'creation_date' ) ;
#132 = DIRECTION ( 'NONE',  ( 0.0000000000000000000, 0.0000000000000000000, 1.000000000000000000 ) ) ;
#133 = APPROVAL_ROLE ( '' ) ;
#134 = CARTESIAN_POINT ( 'NONE',  ( 1.316288464743861212E-13, 1.499999999999994005, 37.69999999999999574 ) ) ;
#135 = ADVANCED_FACE ( 'NONE', ( #176, #47 ), #238, .T. ) ;
#136 = EDGE_LOOP ( 'NONE', ( #160 ) ) ;
#137 = AXIS2_PLACEMENT_3D ( 'NONE', #15, #110, #178 ) ;
#138 = FACE_OUTER_BOUND ( 'NONE', #23, .T. ) ;
#139 = DIRECTION ( 'NONE',  ( 3.491481338843133355E-15, -1.224646799147353207E-16, 1.000000000000000000 ) ) ;
#140 = AXIS2_PLACEMENT_3D ( 'NONE', #108, #236, #221 ) ;
#141 = EDGE_LOOP ( 'NONE', ( #9 ) ) ;
#142 = ADVANCED_FACE ( 'NONE', ( #76, #182 ), #239, .T. ) ;
#143 = DIRECTION ( 'NONE',  ( 1.000000000000000000, 0.0000000000000000000, -3.491481338843133355E-15 ) ) ;
#144 = DIRECTION ( 'NONE',  ( -3.491481338843133355E-15, 1.224646799147353207E-16, -1.000000000000000000 ) ) ;
#145 = APPROVAL_PERSON_ORGANIZATION ( #109, #102, #133 ) ;
#146 = CARTESIAN_POINT ( 'NONE',  ( 0.0000000000000000000, 0.0000000000000000000, 0.0000000000000000000 ) ) ;
#147 = APPROVAL_ROLE ( '' ) ;
#148 = AXIS2_PLACEMENT_3D ( 'NONE', #94, #33, #112 ) ;
#149 = FACE_OUTER_BOUND ( 'NONE', #141, .T. ) ;
#150 = COORDINATED_UNIVERSAL_TIME_OFFSET ( 1, 0, .AHEAD. ) ;
#151 = EDGE_CURVE ( 'NONE', #168, #168, #30, .T. ) ;
#152 = CARTESIAN_POINT ( 'NONE',  ( 0.2181483474218628427, 0.0000000000000000000, 0.8176380902050274235 ) ) ;
#153 = AXIS2_PLACEMENT_3D ( 'NONE', #88, #2, #84 ) ;
#154 = DATE_AND_TIME ( #35, #231 ) ;
#155 = EDGE_CURVE ( 'NONE', #78, #78, #193, .T. ) ;
#156 = DIRECTION ( 'NONE',  ( 0.0000000000000000000, 1.000000000000000000, 0.0000000000000000000 ) ) ;
#157 = DIRECTION ( 'NONE',  ( -3.491481338843133355E-15, 1.224646799147353207E-16, -1.000000000000000000 ) ) ;
#158 = ORIENTED_EDGE ( 'NONE', *, *, #155, .T. ) ;
#159 = CARTESIAN_POINT ( 'NONE',  ( 1.316288464743861212E-13, -4.616918432785521081E-15, 37.69999999999999574 ) ) ;
#160 = ORIENTED_EDGE ( 'NONE', *, *, #62, .F. ) ;
#161 = DATE_AND_TIME ( #96, #101 ) ;
#162 = PLANE ( 'NONE',  #181 ) ;
#163 = ADVANCED_BREP_SHAPE_REPRESENTATION ( '63679', ( #209, #124, #213 ), #7 ) ;
#164 = PERSON_AND_ORGANIZATION ( #179, #66 ) ;
#165 = CARTESIAN_POINT ( 'NONE',  ( 0.0000000000000000000, 0.0000000000000000000, 0.0000000000000000000 ) ) ;
#166 = PRODUCT_RELATED_PRODUCT_CATEGORY ( 'detail', '', ( #55 ) ) ;
#167 = SHAPE_DEFINITION_REPRESENTATION ( #93, #163 ) ;
#168 = VERTEX_POINT ( 'NONE', #180 ) ;
#169 = APPROVAL_STATUS ( 'not_yet_approved' ) ;
#170 = PERSON_AND_ORGANIZATION ( #179, #66 ) ;
#171 = APPROVAL ( #242, 'UNSPECIFIED' ) ;
#172 = CLOSED_SHELL ( 'NONE', ( #202, #142, #95 ) ) ;
#173 = FACE_BOUND ( 'NONE', #119, .T. ) ;
#174 = EDGE_LOOP ( 'NONE', ( #158 ) ) ;
#175 = ORIENTED_EDGE ( 'NONE', *, *, #232, .F. ) ;
#176 = FACE_BOUND ( 'NONE', #174, .T. ) ;
#177 = CIRCLE ( 'NONE', #16, 1.499999999999998446 ) ;
#178 = DIRECTION ( 'NONE',  ( 1.000000000000000000, 0.0000000000000000000, -3.491481338843133355E-15 ) ) ;
#179 = PERSON ( 'UNSPECIFIED', 'UNSPECIFIED', 'UNSPECIFIED', ('UNSPECIFIED'), ('UNSPECIFIED'), ('UNSPECIFIED') ) ;
#180 = CARTESIAN_POINT ( 'NONE',  ( 1.500000000000015543, 0.0000000000000000000, 5.601573585392883636 ) ) ;
#181 = AXIS2_PLACEMENT_3D ( 'NONE', #72, #222, #185 ) ;
#182 = FACE_OUTER_BOUND ( 'NONE', #136, .T. ) ;
#183 = CC_DESIGN_PERSON_AND_ORGANIZATION_ASSIGNMENT ( #189, #14, ( #87 ) ) ;
#184 = PERSON_AND_ORGANIZATION_ROLE ( 'classification_officer' ) ;
#185 = DIRECTION ( 'NONE',  ( -4.275831445896958607E-31, -1.000000000000000000, -1.224646799147353207E-16 ) ) ;
#186 = PERSON_AND_ORGANIZATION ( #179, #66 ) ;
#187 = APPROVAL_PERSON_ORGANIZATION ( #186, #171, #81 ) ;
#188 = PERSON_AND_ORGANIZATION ( #179, #66 ) ;
#189 = PERSON_AND_ORGANIZATION ( #179, #66 ) ;
#190 = EDGE_CURVE ( 'NONE', #38, #38, #83, .T. ) ;
#191 = EDGE_CURVE ( 'NONE', #226, #226, #114, .T. ) ;
#192 = PLANE ( 'NONE',  #71 ) ;
#193 = CIRCLE ( 'NONE', #148, 0.2181483474218599838 ) ;
#194 = EDGE_LOOP ( 'NONE', ( #89 ) ) ;
#195 = ORIENTED_EDGE ( 'NONE', *, *, #65, .F. ) ;
#196 = ORIENTED_EDGE ( 'NONE', *, *, #191, .T. ) ;
#197 = CC_DESIGN_APPROVAL ( #227, ( #87 ) ) ;
#198 = FACE_OUTER_BOUND ( 'NONE', #69, .T. ) ;
#199 = DIRECTION ( 'NONE',  ( 3.491481338843133355E-15, -0.0000000000000000000, 1.000000000000000000 ) ) ;
#200 =( LENGTH_UNIT ( ) NAMED_UNIT ( * ) SI_UNIT ( .MILLI., .METRE. ) );
#201 = CC_DESIGN_APPROVAL ( #102, ( #59 ) ) ;
#202 = ADVANCED_FACE ( 'NONE', ( #149 ), #162, .T. ) ;
#203 = PERSON_AND_ORGANIZATION ( #179, #66 ) ;
#204 = DIRECTION ( 'NONE',  ( 1.000000000000000000, 0.0000000000000000000, 0.0000000000000000000 ) ) ;
#205 = COORDINATED_UNIVERSAL_TIME_OFFSET ( 1, 0, .AHEAD. ) ;
#206 =( NAMED_UNIT ( * ) SI_UNIT ( $, .STERADIAN. ) SOLID_ANGLE_UNIT ( ) );
#207 = AXIS2_PLACEMENT_3D ( 'NONE', #146, #129, #125 ) ;
#208 = ORIENTED_EDGE ( 'NONE', *, *, #151, .F. ) ;
#209 = MANIFOLD_SOLID_BREP ( 'Corps-Déplacer/Copier1[1]', #116 ) ;
#210 = EDGE_LOOP ( 'NONE', ( #104 ) ) ;
#211 = DESIGN_CONTEXT ( 'detailed design', #243, 'design' ) ;
#212 = CC_DESIGN_PERSON_AND_ORGANIZATION_ASSIGNMENT ( #203, #184, ( #24 ) ) ;
#213 = AXIS2_PLACEMENT_3D ( 'NONE', #165, #132, #204 ) ;
#214 = AXIS2_PLACEMENT_3D ( 'NONE', #68, #215, #143 ) ;
#215 = DIRECTION ( 'NONE',  ( 3.491481338843133355E-15, -0.0000000000000000000, 1.000000000000000000 ) ) ;
#216 = FACE_OUTER_BOUND ( 'NONE', #210, .T. ) ;
#217 = PLANE ( 'NONE',  #240 ) ;
#218 = FACE_OUTER_BOUND ( 'NONE', #25, .T. ) ;
#219 = FACE_OUTER_BOUND ( 'NONE', #103, .T. ) ;
#220 = AXIS2_PLACEMENT_3D ( 'NONE', #56, #19, #54 ) ;
#221 = DIRECTION ( 'NONE',  ( 1.000000000000000000, 0.0000000000000000000, -3.469446951953622866E-15 ) ) ;
#222 = DIRECTION ( 'NONE',  ( 3.491481338843133355E-15, -1.224646799147353207E-16, 1.000000000000000000 ) ) ;
#223 = APPROVAL_STATUS ( 'not_yet_approved' ) ;
#224 = CARTESIAN_POINT ( 'NONE',  ( 0.1499999999999999667, 0.0000000000000000000, -5.237222008264698061E-16 ) ) ;
#225 = APPROVAL_DATE_TIME ( #41, #227 ) ;
#226 = VERTEX_POINT ( 'NONE', #224 ) ;
#227 = APPROVAL ( #169, 'UNSPECIFIED' ) ;
#228 = ORIENTED_EDGE ( 'NONE', *, *, #65, .T. ) ;
#229 = DIRECTION ( 'NONE',  ( 4.275831445896958607E-31, 1.000000000000000000, 1.224646799147353207E-16 ) ) ;
#230 = EDGE_LOOP ( 'NONE', ( #208 ) ) ;
#231 = LOCAL_TIME ( 7, 36, 15.00000000000000000, #21 ) ;
#232 = EDGE_CURVE ( 'NONE', #17, #17, #57, .T. ) ;
#233 = ORIENTED_EDGE ( 'NONE', *, *, #191, .F. ) ;
#234 = CC_DESIGN_APPROVAL ( #171, ( #24 ) ) ;
#235 = PERSON_AND_ORGANIZATION_ROLE ( 'design_supplier' ) ;
#236 = DIRECTION ( 'NONE',  ( 3.491481338843133355E-15, -0.0000000000000000000, 1.000000000000000000 ) ) ;
#237 = CALENDAR_DATE ( 2021, 10, 11 ) ;
#238 = CONICAL_SURFACE ( 'NONE', #140, 1.499999999999996225, 0.2617993877991427465 ) ;
#239 = CYLINDRICAL_SURFACE ( 'NONE', #137, 0.1499999999999999667 ) ;
#240 = AXIS2_PLACEMENT_3D ( 'NONE', #106, #49, #121 ) ;
#241 = MECHANICAL_CONTEXT ( 'NONE', #1, 'mechanical' ) ;
#242 = APPROVAL_STATUS ( 'not_yet_approved' ) ;
#243 = APPLICATION_CONTEXT ( 'configuration controlled 3d designs of mechanical parts and assemblies' ) ;
ENDSEC;
END-ISO-10303-21;
