ISO-10303-21;
HEADER;
FILE_DESCRIPTION (( 'STEP AP203' ),
    '1' );
FILE_NAME ('63678.step',
    '2021-11-10T06:36:14',
    ( '' ),
    ( '' ),
    'SwSTEP 2.0',
    'SolidWorks 2019',
    '' );
FILE_SCHEMA (( 'CONFIG_CONTROL_DESIGN' ));
ENDSEC;

DATA;
#1 = CC_DESIGN_DATE_AND_TIME_ASSIGNMENT ( #193, #143, ( #229 ) ) ;
#2 = PLANE ( 'NONE',  #78 ) ;
#3 = AXIS2_PLACEMENT_3D ( 'NONE', #146, #76, #139 ) ;
#4 = CARTESIAN_POINT ( 'NONE',  ( 0.1931483474218628205, 0.0000000000000000000, 0.7676380902050274901 ) ) ;
#5 = EDGE_LOOP ( 'NONE', ( #220 ) ) ;
#6 = APPROVAL_ROLE ( '' ) ;
#7 = PRODUCT_DEFINITION_SHAPE ( 'NONE', 'NONE',  #229 ) ;
#8 = PERSON_AND_ORGANIZATION ( #68, #60 ) ;
#9 = ADVANCED_FACE ( 'NONE', ( #80, #77 ), #96, .T. ) ;
#10 = DIRECTION ( 'NONE',  ( 0.0000000000000000000, 0.0000000000000000000, 1.000000000000000000 ) ) ;
#11 = SHAPE_DEFINITION_REPRESENTATION ( #7, #20 ) ;
#12 = PERSON_AND_ORGANIZATION ( #68, #60 ) ;
#13 = CC_DESIGN_DATE_AND_TIME_ASSIGNMENT ( #86, #214, ( #217 ) ) ;
#14 = CIRCLE ( 'NONE', #171, 0.1250000000000001110 ) ;
#15 = ADVANCED_FACE ( 'NONE', ( #210 ), #2, .T. ) ;
#16 = CARTESIAN_POINT ( 'NONE',  ( 8.728703347107808736E-16, 0.0000000000000000000, 0.2499999999999993061 ) ) ;
#17 = DIRECTION ( 'NONE',  ( 3.491481338843133355E-15, -0.0000000000000000000, 1.000000000000000000 ) ) ;
#18 = FACE_BOUND ( 'NONE', #154, .T. ) ;
#19 = CARTESIAN_POINT ( 'NONE',  ( 1.316288464743861212E-13, -4.616918432785521081E-15, 37.69999999999999574 ) ) ;
#20 = ADVANCED_BREP_SHAPE_REPRESENTATION ( '63678', ( #131, #42, #133 ), #187 ) ;
#21 = FACE_OUTER_BOUND ( 'NONE', #231, .T. ) ;
#22 = DIRECTION ( 'NONE',  ( 3.491481338843133355E-15, -0.0000000000000000000, 1.000000000000000000 ) ) ;
#23 = DIRECTION ( 'NONE',  ( 0.0000000000000000000, 1.000000000000000000, 0.0000000000000000000 ) ) ;
#24 = CARTESIAN_POINT ( 'NONE',  ( -6.413803915257457113E-31, 2.249659577954772199E-32, -1.836986451539393076E-16 ) ) ;
#25 = CIRCLE ( 'NONE', #33, 0.1931483474218601282 ) ;
#26 = CARTESIAN_POINT ( 'NONE',  ( 0.0000000000000000000, 0.0000000000000000000, 0.0000000000000000000 ) ) ;
#27 = EDGE_LOOP ( 'NONE', ( #241 ) ) ;
#28 = CARTESIAN_POINT ( 'NONE',  ( 0.0000000000000000000, 0.0000000000000000000, 0.0000000000000000000 ) ) ;
#29 = APPROVAL_STATUS ( 'not_yet_approved' ) ;
#30 = ADVANCED_FACE ( 'NONE', ( #150 ), #75, .F. ) ;
#31 = PERSON_AND_ORGANIZATION_ROLE ( 'classification_officer' ) ;
#32 = CC_DESIGN_PERSON_AND_ORGANIZATION_ASSIGNMENT ( #195, #84, ( #229 ) ) ;
#33 = AXIS2_PLACEMENT_3D ( 'NONE', #137, #56, #39 ) ;
#34 = LOCAL_TIME ( 7, 36, 14.00000000000000000, #46 ) ;
#35 = DIRECTION ( 'NONE',  ( -3.491481338843133355E-15, 1.224646799147353207E-16, -1.000000000000000000 ) ) ;
#36 = VERTEX_POINT ( 'NONE', #240 ) ;
#37 = DIRECTION ( 'NONE',  ( 3.491481338843133355E-15, -1.224646799147353207E-16, 1.000000000000000000 ) ) ;
#38 = CARTESIAN_POINT ( 'NONE',  ( 8.728703347107818597E-16, 0.0000000000000000000, 0.2499999999999995837 ) ) ;
#39 = DIRECTION ( 'NONE',  ( 1.000000000000000000, 0.0000000000000000000, -3.367987933494884260E-15 ) ) ;
#40 = DIRECTION ( 'NONE',  ( -4.275831445896958607E-31, -1.000000000000000000, -1.224646799147353207E-16 ) ) ;
#41 = CARTESIAN_POINT ( 'NONE',  ( 1.326762908760390423E-13, -4.653657836759941941E-15, 38.00000000000000000 ) ) ;
#42 = MANIFOLD_SOLID_BREP ( 'Corps-Déplacer/Copier1[2]', #70 ) ;
#43 = DIRECTION ( 'NONE',  ( 4.275831445896958607E-31, 1.000000000000000000, 1.224646799147353207E-16 ) ) ;
#44 = COORDINATED_UNIVERSAL_TIME_OFFSET ( 1, 0, .AHEAD. ) ;
#45 = DIRECTION ( 'NONE',  ( 1.000000000000000000, 0.0000000000000000000, 0.0000000000000000000 ) ) ;
#46 = COORDINATED_UNIVERSAL_TIME_OFFSET ( 1, 0, .AHEAD. ) ;
#47 = CIRCLE ( 'NONE', #3, 0.1249999999999998890 ) ;
#48 = PERSON_AND_ORGANIZATION ( #68, #60 ) ;
#49 = EDGE_CURVE ( 'NONE', #36, #36, #130, .T. ) ;
#50 = APPROVAL ( #159, 'UNSPECIFIED' ) ;
#51 = AXIS2_PLACEMENT_3D ( 'NONE', #172, #55, #122 ) ;
#52 = CC_DESIGN_APPROVAL ( #181, ( #219 ) ) ;
#53 = FACE_OUTER_BOUND ( 'NONE', #186, .T. ) ;
#54 = EDGE_LOOP ( 'NONE', ( #62 ) ) ;
#55 = DIRECTION ( 'NONE',  ( -3.491481338843133355E-15, 1.224646799147353207E-16, -1.000000000000000000 ) ) ;
#56 = DIRECTION ( 'NONE',  ( 3.491481338843133355E-15, -0.0000000000000000000, 1.000000000000000000 ) ) ;
#57 = EDGE_LOOP ( 'NONE', ( #115 ) ) ;
#58 = DIRECTION ( 'NONE',  ( 3.491481338843133355E-15, -0.0000000000000000000, 1.000000000000000000 ) ) ;
#59 = CARTESIAN_POINT ( 'NONE',  ( 1.970897521836977506E-14, 0.0000000000000000000, 5.644874855582112438 ) ) ;
#60 = ORGANIZATION ( 'UNSPECIFIED', 'UNSPECIFIED', '' ) ;
#61 = CARTESIAN_POINT ( 'NONE',  ( 0.1250000000000009714, 0.0000000000000000000, 0.2499999999999988620 ) ) ;
#62 = ORIENTED_EDGE ( 'NONE', *, *, #71, .F. ) ;
#63 = CALENDAR_DATE ( 2021, 10, 11 ) ;
#64 = AXIS2_PLACEMENT_3D ( 'NONE', #230, #182, #119 ) ;
#65 = EDGE_CURVE ( 'NONE', #206, #206, #88, .T. ) ;
#66 =( NAMED_UNIT ( * ) SI_UNIT ( $, .STERADIAN. ) SOLID_ANGLE_UNIT ( ) );
#67 = DATE_AND_TIME ( #69, #34 ) ;
#68 = PERSON ( 'UNSPECIFIED', 'UNSPECIFIED', 'UNSPECIFIED', ('UNSPECIFIED'), ('UNSPECIFIED'), ('UNSPECIFIED') ) ;
#69 = CALENDAR_DATE ( 2021, 10, 11 ) ;
#70 = CLOSED_SHELL ( 'NONE', ( #15, #9, #89 ) ) ;
#71 = EDGE_CURVE ( 'NONE', #185, #185, #25, .T. ) ;
#72 = AXIS2_PLACEMENT_3D ( 'NONE', #140, #22, #142 ) ;
#73 = APPLICATION_CONTEXT ( 'configuration controlled 3d designs of mechanical parts and assemblies' ) ;
#74 = FACE_BOUND ( 'NONE', #192, .T. ) ;
#75 = PLANE ( 'NONE',  #121 ) ;
#76 = DIRECTION ( 'NONE',  ( 3.491481338843133355E-15, -0.0000000000000000000, 1.000000000000000000 ) ) ;
#77 = FACE_OUTER_BOUND ( 'NONE', #183, .T. ) ;
#78 = AXIS2_PLACEMENT_3D ( 'NONE', #120, #228, #211 ) ;
#79 =( LENGTH_UNIT ( ) NAMED_UNIT ( * ) SI_UNIT ( .MILLI., .METRE. ) );
#80 = FACE_OUTER_BOUND ( 'NONE', #238, .T. ) ;
#81 = VERTEX_POINT ( 'NONE', #149 ) ;
#82 = ORIENTED_EDGE ( 'NONE', *, *, #202, .F. ) ;
#83 = APPLICATION_PROTOCOL_DEFINITION ( 'international standard', 'config_control_design', 1994, #73 ) ;
#84 = PERSON_AND_ORGANIZATION_ROLE ( 'creator' ) ;
#85 = LOCAL_TIME ( 7, 36, 14.00000000000000000, #102 ) ;
#86 = DATE_AND_TIME ( #63, #125 ) ;
#87 = APPLICATION_CONTEXT ( 'configuration controlled 3d designs of mechanical parts and assemblies' ) ;
#88 = CIRCLE ( 'NONE', #110, 1.499999999999996225 ) ;
#89 = ADVANCED_FACE ( 'NONE', ( #177 ), #93, .F. ) ;
#90 = CC_DESIGN_SECURITY_CLASSIFICATION ( #217, ( #219 ) ) ;
#91 = AXIS2_PLACEMENT_3D ( 'NONE', #26, #35, #141 ) ;
#92 = DIRECTION ( 'NONE',  ( 3.491481338843133355E-15, -0.0000000000000000000, 1.000000000000000000 ) ) ;
#93 = PLANE ( 'NONE',  #204 ) ;
#94 = EDGE_CURVE ( 'NONE', #95, #95, #128, .T. ) ;
#95 = VERTEX_POINT ( 'NONE', #242 ) ;
#96 = CYLINDRICAL_SURFACE ( 'NONE', #72, 0.1250000000000000000 ) ;
#97 = FACE_OUTER_BOUND ( 'NONE', #57, .T. ) ;
#98 = EDGE_LOOP ( 'NONE', ( #82 ) ) ;
#99 = AXIS2_PLACEMENT_3D ( 'NONE', #151, #227, #40 ) ;
#100 = DIRECTION ( 'NONE',  ( 1.000000000000000000, 0.0000000000000000000, -3.491481338843133355E-15 ) ) ;
#101 = ORIENTED_EDGE ( 'NONE', *, *, #94, .T. ) ;
#102 = COORDINATED_UNIVERSAL_TIME_OFFSET ( 1, 0, .AHEAD. ) ;
#103 = APPROVAL_DATE_TIME ( #199, #197 ) ;
#104 = APPROVAL_DATE_TIME ( #67, #181 ) ;
#105 = PERSON_AND_ORGANIZATION_ROLE ( 'design_owner' ) ;
#106 = DIRECTION ( 'NONE',  ( 0.0000000000000000000, 1.000000000000000000, 0.0000000000000000000 ) ) ;
#107 =( NAMED_UNIT ( * ) PLANE_ANGLE_UNIT ( ) SI_UNIT ( $, .RADIAN. ) );
#108 = ADVANCED_FACE ( 'NONE', ( #191 ), #209, .F. ) ;
#109 = PRODUCT_RELATED_PRODUCT_CATEGORY ( 'detail', '', ( #194 ) ) ;
#110 = AXIS2_PLACEMENT_3D ( 'NONE', #59, #17, #188 ) ;
#111 = CC_DESIGN_APPROVAL ( #50, ( #229 ) ) ;
#112 = EDGE_LOOP ( 'NONE', ( #101 ) ) ;
#113 = FACE_OUTER_BOUND ( 'NONE', #27, .T. ) ;
#114 = CARTESIAN_POINT ( 'NONE',  ( 1.500000000000015765, 0.0000000000000000000, 5.644874855582107109 ) ) ;
#115 = ORIENTED_EDGE ( 'NONE', *, *, #65, .F. ) ;
#116 = CC_DESIGN_APPROVAL ( #197, ( #217 ) ) ;
#117 = VERTEX_POINT ( 'NONE', #61 ) ;
#118 = ORIENTED_EDGE ( 'NONE', *, *, #49, .F. ) ;
#119 = DIRECTION ( 'NONE',  ( 1.000000000000000000, 0.0000000000000000000, -3.469446951953611033E-15 ) ) ;
#120 = CARTESIAN_POINT ( 'NONE',  ( 8.728703347107825500E-16, -2.710505431213766632E-17, 0.2499999999999997780 ) ) ;
#121 = AXIS2_PLACEMENT_3D ( 'NONE', #135, #190, #43 ) ;
#122 = DIRECTION ( 'NONE',  ( 0.0000000000000000000, 1.000000000000000000, 0.0000000000000000000 ) ) ;
#123 = ORIENTED_EDGE ( 'NONE', *, *, #134, .T. ) ;
#124 = APPROVAL_DATE_TIME ( #126, #50 ) ;
#125 = LOCAL_TIME ( 7, 36, 14.00000000000000000, #178 ) ;
#126 = DATE_AND_TIME ( #234, #158 ) ;
#127 = MECHANICAL_CONTEXT ( 'NONE', #73, 'mechanical' ) ;
#128 = CIRCLE ( 'NONE', #201, 1.499999999999998446 ) ;
#129 = APPROVAL_PERSON_ORGANIZATION ( #213, #50, #6 ) ;
#130 = CIRCLE ( 'NONE', #221, 1.199999999999998845 ) ;
#131 = MANIFOLD_SOLID_BREP ( 'Corps-Déplacer/Copier1[1]', #212 ) ;
#132 = CONICAL_SURFACE ( 'NONE', #51, 1.199999999999998845, 0.7853981633974450594 ) ;
#133 = AXIS2_PLACEMENT_3D ( 'NONE', #28, #10, #45 ) ;
#134 = EDGE_CURVE ( 'NONE', #81, #81, #47, .T. ) ;
#135 = CARTESIAN_POINT ( 'NONE',  ( 1.326762908760390423E-13, 8.998558695971069014E-33, 38.00000000000000000 ) ) ;
#136 = FACE_OUTER_BOUND ( 'NONE', #112, .T. ) ;
#137 = CARTESIAN_POINT ( 'NONE',  ( 2.680194066936037747E-15, 0.0000000000000000000, 0.7676380902050281563 ) ) ;
#138 = CC_DESIGN_PERSON_AND_ORGANIZATION_ASSIGNMENT ( #12, #105, ( #194 ) ) ;
#139 = DIRECTION ( 'NONE',  ( 1.000000000000000000, 0.0000000000000000000, -3.491481338843133355E-15 ) ) ;
#140 = CARTESIAN_POINT ( 'NONE',  ( -1.786038389295302186E-30, 0.0000000000000000000, -5.115417256925931626E-16 ) ) ;
#141 = DIRECTION ( 'NONE',  ( 4.275831445896958607E-31, 1.000000000000000000, 1.224646799147353207E-16 ) ) ;
#142 = DIRECTION ( 'NONE',  ( 1.000000000000000000, 0.0000000000000000000, -3.491481338843133355E-15 ) ) ;
#143 = DATE_TIME_ROLE ( 'creation_date' ) ;
#144 = CC_DESIGN_PERSON_AND_ORGANIZATION_ASSIGNMENT ( #236, #232, ( #219 ) ) ;
#145 = EDGE_CURVE ( 'NONE', #117, #117, #164, .T. ) ;
#146 = CARTESIAN_POINT ( 'NONE',  ( 0.0000000000000000000, 0.0000000000000000000, 0.0000000000000000000 ) ) ;
#147 = ORIENTED_EDGE ( 'NONE', *, *, #202, .T. ) ;
#148 = AXIS2_PLACEMENT_3D ( 'NONE', #207, #92, #189 ) ;
#149 = CARTESIAN_POINT ( 'NONE',  ( 0.1249999999999998890, 0.0000000000000000000, -4.364351673553912750E-16 ) ) ;
#150 = FACE_OUTER_BOUND ( 'NONE', #170, .T. ) ;
#151 = CARTESIAN_POINT ( 'NONE',  ( 8.728703347107825500E-16, -2.710505431213766632E-17, 0.2499999999999997780 ) ) ;
#152 = ORIENTED_EDGE ( 'NONE', *, *, #134, .F. ) ;
#153 = VERTEX_POINT ( 'NONE', #169 ) ;
#154 = EDGE_LOOP ( 'NONE', ( #208 ) ) ;
#155 = APPLICATION_PROTOCOL_DEFINITION ( 'international standard', 'config_control_design', 1994, #87 ) ;
#156 = COORDINATED_UNIVERSAL_TIME_OFFSET ( 1, 0, .AHEAD. ) ;
#157 = PERSON_AND_ORGANIZATION ( #68, #60 ) ;
#158 = LOCAL_TIME ( 7, 36, 14.00000000000000000, #44 ) ;
#159 = APPROVAL_STATUS ( 'not_yet_approved' ) ;
#160 = CC_DESIGN_PERSON_AND_ORGANIZATION_ASSIGNMENT ( #157, #31, ( #217 ) ) ;
#161 = APPROVAL_ROLE ( '' ) ;
#162 = CONICAL_SURFACE ( 'NONE', #148, 1.499999999999996225, 0.2617993877991428020 ) ;
#163 = ORIENTED_EDGE ( 'NONE', *, *, #49, .T. ) ;
#164 = CIRCLE ( 'NONE', #64, 0.1250000000000001110 ) ;
#165 = DIRECTION ( 'NONE',  ( 1.000000000000000000, 0.0000000000000000000, -3.469446951953611033E-15 ) ) ;
#166 = EDGE_LOOP ( 'NONE', ( #152 ) ) ;
#167 = DIRECTION ( 'NONE',  ( 3.491481338843133355E-15, -0.0000000000000000000, 1.000000000000000000 ) ) ;
#168 = DIRECTION ( 'NONE',  ( -3.491481338843133355E-15, 1.224646799147353207E-16, -1.000000000000000000 ) ) ;
#169 = CARTESIAN_POINT ( 'NONE',  ( 0.1250000000000009714, 0.0000000000000000000, 0.2499999999999988620 ) ) ;
#170 = EDGE_LOOP ( 'NONE', ( #118 ) ) ;
#171 = AXIS2_PLACEMENT_3D ( 'NONE', #16, #58, #165 ) ;
#172 = CARTESIAN_POINT ( 'NONE',  ( 1.326762908760390423E-13, -4.653657836759941941E-15, 38.00000000000000000 ) ) ;
#173 = DIRECTION ( 'NONE',  ( -4.275831445896958607E-31, -1.000000000000000000, -1.224646799147353207E-16 ) ) ;
#174 = ADVANCED_FACE ( 'NONE', ( #113, #74 ), #132, .T. ) ;
#175 = SECURITY_CLASSIFICATION_LEVEL ( 'unclassified' ) ;
#176 = APPROVAL_STATUS ( 'not_yet_approved' ) ;
#177 = FACE_OUTER_BOUND ( 'NONE', #166, .T. ) ;
#178 = COORDINATED_UNIVERSAL_TIME_OFFSET ( 1, 0, .AHEAD. ) ;
#179 = ADVANCED_FACE ( 'NONE', ( #136, #21 ), #223, .T. ) ;
#180 = TOROIDAL_SURFACE ( 'NONE', #215, 2.125000000000000000, 2.000000000000000000 ) ;
#181 = APPROVAL ( #29, 'UNSPECIFIED' ) ;
#182 = DIRECTION ( 'NONE',  ( 3.491481338843133355E-15, -0.0000000000000000000, 1.000000000000000000 ) ) ;
#183 = EDGE_LOOP ( 'NONE', ( #224 ) ) ;
#184 = UNCERTAINTY_MEASURE_WITH_UNIT (LENGTH_MEASURE( 1.000000000000000082E-05 ), #79, 'distance_accuracy_value', 'NONE');
#185 = VERTEX_POINT ( 'NONE', #4 ) ;
#186 = EDGE_LOOP ( 'NONE', ( #147 ) ) ;
#187 =( GEOMETRIC_REPRESENTATION_CONTEXT ( 3 ) GLOBAL_UNCERTAINTY_ASSIGNED_CONTEXT ( ( #184 ) ) GLOBAL_UNIT_ASSIGNED_CONTEXT ( ( #79, #107, #66 ) ) REPRESENTATION_CONTEXT ( 'NONE', 'WORKASPACE' ) );
#188 = DIRECTION ( 'NONE',  ( 1.000000000000000000, 0.0000000000000000000, -3.469446951953622866E-15 ) ) ;
#189 = DIRECTION ( 'NONE',  ( 1.000000000000000000, 0.0000000000000000000, -3.469446951953622866E-15 ) ) ;
#190 = DIRECTION ( 'NONE',  ( -3.491481338843133355E-15, 1.224646799147353207E-16, -1.000000000000000000 ) ) ;
#191 = FACE_OUTER_BOUND ( 'NONE', #98, .T. ) ;
#192 = EDGE_LOOP ( 'NONE', ( #163 ) ) ;
#193 = DATE_AND_TIME ( #233, #85 ) ;
#194 = PRODUCT ( '63678', '63678', '', ( #127 ) ) ;
#195 = PERSON_AND_ORGANIZATION ( #68, #60 ) ;
#196 = CALENDAR_DATE ( 2021, 10, 11 ) ;
#197 = APPROVAL ( #176, 'UNSPECIFIED' ) ;
#198 = PERSON_AND_ORGANIZATION_ROLE ( 'creator' ) ;
#199 = DATE_AND_TIME ( #196, #205 ) ;
#200 = APPROVAL_PERSON_ORGANIZATION ( #8, #197, #161 ) ;
#201 = AXIS2_PLACEMENT_3D ( 'NONE', #19, #168, #23 ) ;
#202 = EDGE_CURVE ( 'NONE', #153, #153, #14, .T. ) ;
#203 = CC_DESIGN_PERSON_AND_ORGANIZATION_ASSIGNMENT ( #48, #198, ( #219 ) ) ;
#204 = AXIS2_PLACEMENT_3D ( 'NONE', #24, #37, #173 ) ;
#205 = LOCAL_TIME ( 7, 36, 14.00000000000000000, #156 ) ;
#206 = VERTEX_POINT ( 'NONE', #114 ) ;
#207 = CARTESIAN_POINT ( 'NONE',  ( 1.970897521836977506E-14, 0.0000000000000000000, 5.644874855582112438 ) ) ;
#208 = ORIENTED_EDGE ( 'NONE', *, *, #71, .T. ) ;
#209 = PLANE ( 'NONE',  #99 ) ;
#210 = FACE_OUTER_BOUND ( 'NONE', #5, .T. ) ;
#211 = DIRECTION ( 'NONE',  ( -4.275831445896958607E-31, -1.000000000000000000, -1.224646799147353207E-16 ) ) ;
#212 = CLOSED_SHELL ( 'NONE', ( #179, #174, #30, #239, #218, #108 ) ) ;
#213 = PERSON_AND_ORGANIZATION ( #68, #60 ) ;
#214 = DATE_TIME_ROLE ( 'classification_date' ) ;
#215 = AXIS2_PLACEMENT_3D ( 'NONE', #38, #167, #100 ) ;
#216 = PERSON_AND_ORGANIZATION ( #68, #60 ) ;
#217 = SECURITY_CLASSIFICATION ( '', '', #175 ) ;
#218 = ADVANCED_FACE ( 'NONE', ( #18, #97 ), #162, .T. ) ;
#219 = PRODUCT_DEFINITION_FORMATION_WITH_SPECIFIED_SOURCE ( 'ANY', '', #194, .NOT_KNOWN. ) ;
#220 = ORIENTED_EDGE ( 'NONE', *, *, #145, .T. ) ;
#221 = AXIS2_PLACEMENT_3D ( 'NONE', #41, #226, #106 ) ;
#222 = DESIGN_CONTEXT ( 'detailed design', #87, 'design' ) ;
#223 = CYLINDRICAL_SURFACE ( 'NONE', #91, 1.499999999999996225 ) ;
#224 = ORIENTED_EDGE ( 'NONE', *, *, #145, .F. ) ;
#225 = FACE_OUTER_BOUND ( 'NONE', #54, .T. ) ;
#226 = DIRECTION ( 'NONE',  ( -3.491481338843133355E-15, 1.224646799147353207E-16, -1.000000000000000000 ) ) ;
#227 = DIRECTION ( 'NONE',  ( 3.491481338843133355E-15, -1.224646799147353207E-16, 1.000000000000000000 ) ) ;
#228 = DIRECTION ( 'NONE',  ( 3.491481338843133355E-15, -1.224646799147353207E-16, 1.000000000000000000 ) ) ;
#229 = PRODUCT_DEFINITION ( 'UNKNOWN', '', #219, #222 ) ;
#230 = CARTESIAN_POINT ( 'NONE',  ( 8.728703347107808736E-16, 0.0000000000000000000, 0.2499999999999993061 ) ) ;
#231 = EDGE_LOOP ( 'NONE', ( #243 ) ) ;
#232 = PERSON_AND_ORGANIZATION_ROLE ( 'design_supplier' ) ;
#233 = CALENDAR_DATE ( 2021, 10, 11 ) ;
#234 = CALENDAR_DATE ( 2021, 10, 11 ) ;
#235 = APPROVAL_ROLE ( '' ) ;
#236 = PERSON_AND_ORGANIZATION ( #68, #60 ) ;
#237 = APPROVAL_PERSON_ORGANIZATION ( #216, #181, #235 ) ;
#238 = EDGE_LOOP ( 'NONE', ( #123 ) ) ;
#239 = ADVANCED_FACE ( 'NONE', ( #53, #225 ), #180, .F. ) ;
#240 = CARTESIAN_POINT ( 'NONE',  ( 1.326762908760390423E-13, 1.199999999999994182, 38.00000000000000000 ) ) ;
#241 = ORIENTED_EDGE ( 'NONE', *, *, #94, .F. ) ;
#242 = CARTESIAN_POINT ( 'NONE',  ( 1.316288464743861212E-13, 1.499999999999994005, 37.69999999999999574 ) ) ;
#243 = ORIENTED_EDGE ( 'NONE', *, *, #65, .T. ) ;
ENDSEC;
END-ISO-10303-21;
