ISO-10303-21;
HEADER;
FILE_DESCRIPTION (( 'STEP AP203' ),
    '1' );
FILE_NAME ('63641.step',
    '2021-10-13T11:36:29',
    ( '' ),
    ( '' ),
    'SwSTEP 2.0',
    'SolidWorks 2019',
    '' );
FILE_SCHEMA (( 'CONFIG_CONTROL_DESIGN' ));
ENDSEC;

DATA;
#1 = COORDINATED_UNIVERSAL_TIME_OFFSET ( 1, 0, .AHEAD. ) ;
#2 = LOCAL_TIME ( 13, 36, 29.00000000000000000, #47 ) ;
#3 = AXIS2_PLACEMENT_3D ( 'NONE', #13, #45, #8 ) ;
#4 = PRODUCT_DEFINITION ( 'UNKNOWN', '', #96, #217 ) ;
#5 = ORIENTED_EDGE ( 'NONE', *, *, #162, .F. ) ;
#6 = AXIS2_PLACEMENT_3D ( 'NONE', #181, #225, #78 ) ;
#7 = ORIENTED_EDGE ( 'NONE', *, *, #85, .T. ) ;
#8 = DIRECTION ( 'NONE',  ( 0.0000000000000000000, -1.000000000000000000, 0.0000000000000000000 ) ) ;
#9 = MANIFOLD_SOLID_BREP ( 'Corps-Déplacer/Copier1[1]', #77 ) ;
#10 = EDGE_LOOP ( 'NONE', ( #167 ) ) ;
#11 = FACE_OUTER_BOUND ( 'NONE', #70, .T. ) ;
#12 = CC_DESIGN_PERSON_AND_ORGANIZATION_ASSIGNMENT ( #260, #28, ( #23 ) ) ;
#13 = CARTESIAN_POINT ( 'NONE',  ( 8.379555213223520053E-14, -1.038521950748818292E-14, 24.00000000000000000 ) ) ;
#14 = FACE_OUTER_BOUND ( 'NONE', #110, .T. ) ;
#15 = FACE_OUTER_BOUND ( 'NONE', #150, .T. ) ;
#16 = ADVANCED_FACE ( 'NONE', ( #14 ), #223, .T. ) ;
#17 = APPROVAL_STATUS ( 'not_yet_approved' ) ;
#18 = CARTESIAN_POINT ( 'NONE',  ( 2.730338406975330915E-13, 3.999999999999988010, 78.20000000000000284 ) ) ;
#19 = EDGE_CURVE ( 'NONE', #114, #114, #261, .T. ) ;
#20 = CALENDAR_DATE ( 2021, 13, 10 ) ;
#21 = ORIENTED_EDGE ( 'NONE', *, *, #19, .T. ) ;
#22 = DIRECTION ( 'NONE',  ( 1.510825004591027855E-30, 1.000000000000000000, 4.327174794786743375E-16 ) ) ;
#23 = PRODUCT ( '63641', '63641', '', ( #71 ) ) ;
#24 = CYLINDRICAL_SURFACE ( 'NONE', #69, 3.200000000000005507 ) ;
#25 = FACE_BOUND ( 'NONE', #88, .T. ) ;
#26 = ORIENTED_EDGE ( 'NONE', *, *, #174, .F. ) ;
#27 = DIRECTION ( 'NONE',  ( -3.491481338843133355E-15, 1.224646799147353207E-16, -1.000000000000000000 ) ) ;
#28 = PERSON_AND_ORGANIZATION_ROLE ( 'design_owner' ) ;
#29 = PERSON ( 'UNSPECIFIED', 'UNSPECIFIED', 'UNSPECIFIED', ('UNSPECIFIED'), ('UNSPECIFIED'), ('UNSPECIFIED') ) ;
#30 = VERTEX_POINT ( 'NONE', #227 ) ;
#31 = DIRECTION ( 'NONE',  ( 0.0000000000000000000, -1.000000000000000000, 0.0000000000000000000 ) ) ;
#32 = ADVANCED_FACE ( 'NONE', ( #202, #175 ), #61, .T. ) ;
#33 =( NAMED_UNIT ( * ) SI_UNIT ( $, .STERADIAN. ) SOLID_ANGLE_UNIT ( ) );
#34 = CALENDAR_DATE ( 2021, 13, 10 ) ;
#35 = CLOSED_SHELL ( 'NONE', ( #52, #154, #16 ) ) ;
#36 = DIRECTION ( 'NONE',  ( -4.275831445896958607E-31, -1.000000000000000000, -1.224646799147353207E-16 ) ) ;
#37 = SHAPE_DEFINITION_REPRESENTATION ( #151, #125 ) ;
#38 = DIRECTION ( 'NONE',  ( 3.491481338843133355E-15, -1.224646799147353207E-16, 1.000000000000000000 ) ) ;
#39 = DIRECTION ( 'NONE',  ( -3.491481338843133355E-15, 4.327174794786742882E-16, -1.000000000000000000 ) ) ;
#40 = CARTESIAN_POINT ( 'NONE',  ( 2.758270257686075477E-13, 2.399615652258956298E-32, 79.00000000000000000 ) ) ;
#41 = EDGE_CURVE ( 'NONE', #240, #240, #219, .T. ) ;
#42 = ORIENTED_EDGE ( 'NONE', *, *, #254, .F. ) ;
#43 = AXIS2_PLACEMENT_3D ( 'NONE', #221, #27, #168 ) ;
#44 = AXIS2_PLACEMENT_3D ( 'NONE', #237, #124, #216 ) ;
#45 = DIRECTION ( 'NONE',  ( -3.491481338843133355E-15, 1.224646799147353207E-16, -1.000000000000000000 ) ) ;
#46 = DIRECTION ( 'NONE',  ( 3.491481338843133355E-15, -1.224646799147353207E-16, 1.000000000000000000 ) ) ;
#47 = COORDINATED_UNIVERSAL_TIME_OFFSET ( 1, 0, .AHEAD. ) ;
#48 = LOCAL_TIME ( 13, 36, 29.00000000000000000, #1 ) ;
#49 = AXIS2_PLACEMENT_3D ( 'NONE', #59, #38, #116 ) ;
#50 = CARTESIAN_POINT ( 'NONE',  ( 2.758270257686075477E-13, -9.674709713264090904E-15, 79.00000000000000000 ) ) ;
#51 = COORDINATED_UNIVERSAL_TIME_OFFSET ( 1, 0, .AHEAD. ) ;
#52 = ADVANCED_FACE ( 'NONE', ( #54 ), #129, .T. ) ;
#53 = COORDINATED_UNIVERSAL_TIME_OFFSET ( 1, 0, .AHEAD. ) ;
#54 = FACE_OUTER_BOUND ( 'NONE', #196, .T. ) ;
#55 = AXIS2_PLACEMENT_3D ( 'NONE', #164, #106, #111 ) ;
#56 = ADVANCED_FACE ( 'NONE', ( #211, #152 ), #252, .T. ) ;
#57 = CIRCLE ( 'NONE', #3, 3.200000000000005507 ) ;
#58 = CIRCLE ( 'NONE', #180, 3.200000000000005507 ) ;
#59 = CARTESIAN_POINT ( 'NONE',  ( 5.083181123339288140E-15, -1.782939929516086244E-16, 1.455880937064824243 ) ) ;
#60 = ORIENTED_EDGE ( 'NONE', *, *, #41, .F. ) ;
#61 = CONICAL_SURFACE ( 'NONE', #222, 4.500000000000008882, 0.5235987755983007030 ) ;
#62 = CARTESIAN_POINT ( 'NONE',  ( 1.204561061900881197E-13, -1.492875304201426452E-14, 34.50000000000000000 ) ) ;
#63 = DIRECTION ( 'NONE',  ( -3.491481338843133355E-15, 1.224646799147353207E-16, -1.000000000000000000 ) ) ;
#64 = CARTESIAN_POINT ( 'NONE',  ( 0.0000000000000000000, 0.0000000000000000000, 0.0000000000000000000 ) ) ;
#65 = APPLICATION_CONTEXT ( 'configuration controlled 3d designs of mechanical parts and assemblies' ) ;
#66 = CARTESIAN_POINT ( 'NONE',  ( 8.379555213223520053E-14, -1.038521950748818292E-14, 24.00000000000000000 ) ) ;
#67 = ORIENTED_EDGE ( 'NONE', *, *, #100, .T. ) ;
#68 = FACE_OUTER_BOUND ( 'NONE', #157, .T. ) ;
#69 = AXIS2_PLACEMENT_3D ( 'NONE', #256, #39, #103 ) ;
#70 = EDGE_LOOP ( 'NONE', ( #198 ) ) ;
#71 = MECHANICAL_CONTEXT ( 'NONE', #65, 'mechanical' ) ;
#72 = PERSON_AND_ORGANIZATION_ROLE ( 'creator' ) ;
#73 =( GEOMETRIC_REPRESENTATION_CONTEXT ( 3 ) GLOBAL_UNCERTAINTY_ASSIGNED_CONTEXT ( ( #144 ) ) GLOBAL_UNIT_ASSIGNED_CONTEXT ( ( #134, #156, #33 ) ) REPRESENTATION_CONTEXT ( 'NONE', 'WORKASPACE' ) );
#74 = CARTESIAN_POINT ( 'NONE',  ( 1.244838435838416981E-13, -1.542793152927621887E-14, 35.65358983848619090 ) ) ;
#75 = AXIS2_PLACEMENT_3D ( 'NONE', #64, #87, #220 ) ;
#76 = CALENDAR_DATE ( 2021, 13, 10 ) ;
#77 = CLOSED_SHELL ( 'NONE', ( #56, #228, #126, #199, #32, #80, #147 ) ) ;
#78 = DIRECTION ( 'NONE',  ( 1.000000000000000000, 0.0000000000000000000, 0.0000000000000000000 ) ) ;
#79 = VERTEX_POINT ( 'NONE', #203 ) ;
#80 = ADVANCED_FACE ( 'NONE', ( #197, #235 ), #98, .F. ) ;
#81 = DATE_AND_TIME ( #34, #48 ) ;
#82 = PERSON_AND_ORGANIZATION_ROLE ( 'classification_officer' ) ;
#83 = AXIS2_PLACEMENT_3D ( 'NONE', #107, #201, #22 ) ;
#84 = PERSON_AND_ORGANIZATION ( #29, #113 ) ;
#85 = EDGE_CURVE ( 'NONE', #94, #94, #187, .T. ) ;
#86 = APPROVAL ( #138, 'UNSPECIFIED' ) ;
#87 = DIRECTION ( 'NONE',  ( -3.491481338843133355E-15, 1.224646799147353207E-16, -1.000000000000000000 ) ) ;
#88 = EDGE_LOOP ( 'NONE', ( #232 ) ) ;
#89 = EDGE_LOOP ( 'NONE', ( #7 ) ) ;
#90 = CIRCLE ( 'NONE', #43, 3.200000000000005507 ) ;
#91 = APPROVAL_ROLE ( '' ) ;
#92 = MANIFOLD_SOLID_BREP ( 'Corps-Déplacer/Copier1[2]', #35 ) ;
#93 = APPROVAL_ROLE ( '' ) ;
#94 = VERTEX_POINT ( 'NONE', #160 ) ;
#95 = COORDINATED_UNIVERSAL_TIME_OFFSET ( 1, 0, .AHEAD. ) ;
#96 = PRODUCT_DEFINITION_FORMATION_WITH_SPECIFIED_SOURCE ( 'ANY', '', #23, .NOT_KNOWN. ) ;
#97 = APPROVAL_ROLE ( '' ) ;
#98 = TOROIDAL_SURFACE ( 'NONE', #44, 4.200000000000009948, 0.9999999999999986677 ) ;
#99 = SECURITY_CLASSIFICATION_LEVEL ( 'unclassified' ) ;
#100 = EDGE_CURVE ( 'NONE', #183, #183, #105, .T. ) ;
#101 = DIRECTION ( 'NONE',  ( 4.275831445896958607E-31, 1.000000000000000000, 1.224646799147353207E-16 ) ) ;
#102 = LOCAL_TIME ( 13, 36, 29.00000000000000000, #53 ) ;
#103 = DIRECTION ( 'NONE',  ( 1.510825004591027855E-30, 1.000000000000000000, 4.327174794786743375E-16 ) ) ;
#104 = CARTESIAN_POINT ( 'NONE',  ( 1.187103655206665341E-13, -1.471239430227492580E-14, 34.00000000000000000 ) ) ;
#105 = CIRCLE ( 'NONE', #135, 3.200000000000010392 ) ;
#106 = DIRECTION ( 'NONE',  ( -3.491481338843133355E-15, 1.224646799147353207E-16, -1.000000000000000000 ) ) ;
#107 = CARTESIAN_POINT ( 'NONE',  ( 0.0000000000000000000, 0.0000000000000000000, 0.0000000000000000000 ) ) ;
#108 = DIRECTION ( 'NONE',  ( -3.491481338843133355E-15, 1.224646799147353207E-16, -1.000000000000000000 ) ) ;
#109 = APPLICATION_PROTOCOL_DEFINITION ( 'international standard', 'config_control_design', 1994, #120 ) ;
#110 = EDGE_LOOP ( 'NONE', ( #26 ) ) ;
#111 = DIRECTION ( 'NONE',  ( 0.0000000000000000000, 1.000000000000000000, 0.0000000000000000000 ) ) ;
#112 = CARTESIAN_POINT ( 'NONE',  ( 1.244838435838416981E-13, -4.000000000000009770, 35.65358983848619090 ) ) ;
#113 = ORGANIZATION ( 'UNSPECIFIED', 'UNSPECIFIED', '' ) ;
#114 = VERTEX_POINT ( 'NONE', #18 ) ;
#115 = CC_DESIGN_APPROVAL ( #86, ( #177 ) ) ;
#116 = DIRECTION ( 'NONE',  ( -3.851859888774483092E-31, -1.000000000000000000, -1.084202172485507639E-16 ) ) ;
#117 = PERSON_AND_ORGANIZATION ( #29, #113 ) ;
#118 = AXIS2_PLACEMENT_3D ( 'NONE', #62, #142, #239 ) ;
#119 = CC_DESIGN_PERSON_AND_ORGANIZATION_ASSIGNMENT ( #136, #189, ( #96 ) ) ;
#120 = APPLICATION_CONTEXT ( 'configuration controlled 3d designs of mechanical parts and assemblies' ) ;
#121 = PERSON_AND_ORGANIZATION ( #29, #113 ) ;
#122 = FACE_OUTER_BOUND ( 'NONE', #191, .T. ) ;
#123 = ORIENTED_EDGE ( 'NONE', *, *, #100, .F. ) ;
#124 = DIRECTION ( 'NONE',  ( -3.491481338843133355E-15, 4.327174794786742882E-16, -1.000000000000000000 ) ) ;
#125 = ADVANCED_BREP_SHAPE_REPRESENTATION ( '63641', ( #9, #92, #6 ), #73 ) ;
#126 = ADVANCED_FACE ( 'NONE', ( #15 ), #165, .F. ) ;
#127 = DIRECTION ( 'NONE',  ( -4.275831445896958607E-31, -1.000000000000000000, -1.224646799147353207E-16 ) ) ;
#128 = DIRECTION ( 'NONE',  ( 0.0000000000000000000, -1.000000000000000000, 0.0000000000000000000 ) ) ;
#129 = CONICAL_SURFACE ( 'NONE', #49, 3.999999999999988010, 1.221730476396026388 ) ;
#130 = DATE_AND_TIME ( #206, #2 ) ;
#131 = APPROVAL ( #242, 'UNSPECIFIED' ) ;
#132 = DATE_TIME_ROLE ( 'creation_date' ) ;
#133 = CARTESIAN_POINT ( 'NONE',  ( 1.187103655206665341E-13, 3.199999999999995737, 34.00000000000000000 ) ) ;
#134 =( LENGTH_UNIT ( ) NAMED_UNIT ( * ) SI_UNIT ( .MILLI., .METRE. ) );
#135 = AXIS2_PLACEMENT_3D ( 'NONE', #104, #148, #233 ) ;
#136 = PERSON_AND_ORGANIZATION ( #29, #113 ) ;
#137 = AXIS2_PLACEMENT_3D ( 'NONE', #149, #108, #257 ) ;
#138 = APPROVAL_STATUS ( 'not_yet_approved' ) ;
#139 = CIRCLE ( 'NONE', #161, 3.199999999999997957 ) ;
#140 = LOCAL_TIME ( 13, 36, 29.00000000000000000, #51 ) ;
#141 = ORIENTED_EDGE ( 'NONE', *, *, #162, .T. ) ;
#142 = DIRECTION ( 'NONE',  ( -3.491481338843133355E-15, 4.327174794786742882E-16, -1.000000000000000000 ) ) ;
#143 = FACE_OUTER_BOUND ( 'NONE', #246, .T. ) ;
#144 = UNCERTAINTY_MEASURE_WITH_UNIT (LENGTH_MEASURE( 1.000000000000000082E-05 ), #134, 'distance_accuracy_value', 'NONE');
#145 = ORIENTED_EDGE ( 'NONE', *, *, #185, .F. ) ;
#146 = CC_DESIGN_SECURITY_CLASSIFICATION ( #177, ( #96 ) ) ;
#147 = ADVANCED_FACE ( 'NONE', ( #68 ), #250, .F. ) ;
#148 = DIRECTION ( 'NONE',  ( -3.491481338843133355E-15, 4.327174794786742882E-16, -1.000000000000000000 ) ) ;
#149 = CARTESIAN_POINT ( 'NONE',  ( 2.730338406975330915E-13, -9.576737969332302470E-15, 78.20000000000000284 ) ) ;
#150 = EDGE_LOOP ( 'NONE', ( #42 ) ) ;
#151 = PRODUCT_DEFINITION_SHAPE ( 'NONE', 'NONE',  #4 ) ;
#152 = FACE_OUTER_BOUND ( 'NONE', #172, .T. ) ;
#153 = PERSON_AND_ORGANIZATION ( #29, #113 ) ;
#154 = ADVANCED_FACE ( 'NONE', ( #143, #122 ), #24, .T. ) ;
#155 = APPROVAL_PERSON_ORGANIZATION ( #153, #131, #91 ) ;
#156 =( NAMED_UNIT ( * ) PLANE_ANGLE_UNIT ( ) SI_UNIT ( $, .RADIAN. ) );
#157 = EDGE_LOOP ( 'NONE', ( #141 ) ) ;
#158 = VERTEX_POINT ( 'NONE', #263 ) ;
#159 = PRODUCT_RELATED_PRODUCT_CATEGORY ( 'detail', '', ( #23 ) ) ;
#160 = CARTESIAN_POINT ( 'NONE',  ( 1.204561061900881197E-13, 3.333974596215558250, 34.50000000000000000 ) ) ;
#161 = AXIS2_PLACEMENT_3D ( 'NONE', #50, #178, #244 ) ;
#162 = EDGE_CURVE ( 'NONE', #207, #207, #58, .T. ) ;
#163 = DATE_AND_TIME ( #210, #140 ) ;
#164 = CARTESIAN_POINT ( 'NONE',  ( 2.758270257686075477E-13, -9.674709713264090904E-15, 79.00000000000000000 ) ) ;
#165 = PLANE ( 'NONE',  #190 ) ;
#166 = DIRECTION ( 'NONE',  ( 3.491481338843133355E-15, -4.327174794786742882E-16, 1.000000000000000000 ) ) ;
#167 = ORIENTED_EDGE ( 'NONE', *, *, #41, .T. ) ;
#168 = DIRECTION ( 'NONE',  ( -4.814824860968081750E-31, -1.000000000000000000, -1.355252715606878324E-16 ) ) ;
#169 = CC_DESIGN_PERSON_AND_ORGANIZATION_ASSIGNMENT ( #258, #72, ( #4 ) ) ;
#170 = EDGE_LOOP ( 'NONE', ( #123 ) ) ;
#171 = CONICAL_SURFACE ( 'NONE', #55, 3.199999999999997957, 0.7853981633974510546 ) ;
#172 = EDGE_LOOP ( 'NONE', ( #21 ) ) ;
#173 = FACE_OUTER_BOUND ( 'NONE', #236, .T. ) ;
#174 = EDGE_CURVE ( 'NONE', #30, #30, #57, .T. ) ;
#175 = FACE_OUTER_BOUND ( 'NONE', #255, .T. ) ;
#176 = APPROVAL_DATE_TIME ( #130, #131 ) ;
#177 = SECURITY_CLASSIFICATION ( '', '', #99 ) ;
#178 = DIRECTION ( 'NONE',  ( -3.491481338843133355E-15, 1.224646799147353207E-16, -1.000000000000000000 ) ) ;
#179 = DIRECTION ( 'NONE',  ( 3.491481338843133355E-15, -4.327174794786742882E-16, 1.000000000000000000 ) ) ;
#180 = AXIS2_PLACEMENT_3D ( 'NONE', #66, #238, #128 ) ;
#181 = CARTESIAN_POINT ( 'NONE',  ( 0.0000000000000000000, 0.0000000000000000000, 0.0000000000000000000 ) ) ;
#182 = AXIS2_PLACEMENT_3D ( 'NONE', #192, #46, #127 ) ;
#183 = VERTEX_POINT ( 'NONE', #133 ) ;
#184 = CC_DESIGN_APPROVAL ( #131, ( #4 ) ) ;
#185 = EDGE_CURVE ( 'NONE', #158, #158, #90, .T. ) ;
#186 = DATE_TIME_ROLE ( 'classification_date' ) ;
#187 = CIRCLE ( 'NONE', #118, 3.333974596215572905 ) ;
#188 = AXIS2_PLACEMENT_3D ( 'NONE', #74, #179, #31 ) ;
#189 = PERSON_AND_ORGANIZATION_ROLE ( 'creator' ) ;
#190 = AXIS2_PLACEMENT_3D ( 'NONE', #40, #63, #101 ) ;
#191 = EDGE_LOOP ( 'NONE', ( #145 ) ) ;
#192 = CARTESIAN_POINT ( 'NONE',  ( 8.379555213223520053E-14, 2.999519565323704815E-32, 24.00000000000000000 ) ) ;
#193 = CARTESIAN_POINT ( 'NONE',  ( 1.275075551201192277E-13, -1.580267585916633238E-14, 36.51961524227065325 ) ) ;
#194 = EDGE_LOOP ( 'NONE', ( #67 ) ) ;
#195 = APPROVAL ( #17, 'UNSPECIFIED' ) ;
#196 = EDGE_LOOP ( 'NONE', ( #214 ) ) ;
#197 = FACE_OUTER_BOUND ( 'NONE', #170, .T. ) ;
#198 = ORIENTED_EDGE ( 'NONE', *, *, #19, .F. ) ;
#199 = ADVANCED_FACE ( 'NONE', ( #218, #173 ), #215, .T. ) ;
#200 = LOCAL_TIME ( 13, 36, 29.00000000000000000, #95 ) ;
#201 = DIRECTION ( 'NONE',  ( -3.491481338843133355E-15, 4.327174794786742882E-16, -1.000000000000000000 ) ) ;
#202 = FACE_BOUND ( 'NONE', #226, .T. ) ;
#203 = CARTESIAN_POINT ( 'NONE',  ( 2.758270257686075477E-13, 3.199999999999988631, 79.00000000000000000 ) ) ;
#204 = PERSON_AND_ORGANIZATION ( #29, #113 ) ;
#205 = DIRECTION ( 'NONE',  ( 3.491481338843133355E-15, -1.224646799147353207E-16, 1.000000000000000000 ) ) ;
#206 = CALENDAR_DATE ( 2021, 13, 10 ) ;
#207 = VERTEX_POINT ( 'NONE', #208 ) ;
#208 = CARTESIAN_POINT ( 'NONE',  ( 8.379555213223520053E-14, -3.200000000000015721, 24.00000000000000000 ) ) ;
#209 = CC_DESIGN_DATE_AND_TIME_ASSIGNMENT ( #231, #186, ( #177 ) ) ;
#210 = CALENDAR_DATE ( 2021, 13, 10 ) ;
#211 = FACE_OUTER_BOUND ( 'NONE', #10, .T. ) ;
#212 = PERSON_AND_ORGANIZATION_ROLE ( 'design_supplier' ) ;
#213 = CC_DESIGN_PERSON_AND_ORGANIZATION_ASSIGNMENT ( #117, #212, ( #96 ) ) ;
#214 = ORIENTED_EDGE ( 'NONE', *, *, #185, .T. ) ;
#215 = CYLINDRICAL_SURFACE ( 'NONE', #83, 3.200000000000005507 ) ;
#216 = DIRECTION ( 'NONE',  ( 1.510825004591027855E-30, 1.000000000000000000, 4.327174794786743375E-16 ) ) ;
#217 = DESIGN_CONTEXT ( 'detailed design', #120, 'design' ) ;
#218 = FACE_OUTER_BOUND ( 'NONE', #194, .T. ) ;
#219 = CIRCLE ( 'NONE', #188, 3.999999999999994227 ) ;
#220 = DIRECTION ( 'NONE',  ( 4.275831445896958607E-31, 1.000000000000000000, 1.224646799147353207E-16 ) ) ;
#221 = CARTESIAN_POINT ( 'NONE',  ( 4.066544898671449287E-15, -1.426351943612875651E-16, 1.164704749651864768 ) ) ;
#222 = AXIS2_PLACEMENT_3D ( 'NONE', #193, #166, #251 ) ;
#223 = PLANE ( 'NONE',  #230 ) ;
#224 = ORIENTED_EDGE ( 'NONE', *, *, #85, .F. ) ;
#225 = DIRECTION ( 'NONE',  ( 0.0000000000000000000, 0.0000000000000000000, 1.000000000000000000 ) ) ;
#226 = EDGE_LOOP ( 'NONE', ( #224 ) ) ;
#227 = CARTESIAN_POINT ( 'NONE',  ( 8.379555213223520053E-14, -3.200000000000015721, 24.00000000000000000 ) ) ;
#228 = ADVANCED_FACE ( 'NONE', ( #11, #25 ), #171, .T. ) ;
#229 = APPROVAL_DATE_TIME ( #163, #195 ) ;
#230 = AXIS2_PLACEMENT_3D ( 'NONE', #259, #205, #36 ) ;
#231 = DATE_AND_TIME ( #20, #200 ) ;
#232 = ORIENTED_EDGE ( 'NONE', *, *, #254, .T. ) ;
#233 = DIRECTION ( 'NONE',  ( 0.0000000000000000000, 1.000000000000000000, 0.0000000000000000000 ) ) ;
#234 = CC_DESIGN_PERSON_AND_ORGANIZATION_ASSIGNMENT ( #121, #82, ( #177 ) ) ;
#235 = FACE_OUTER_BOUND ( 'NONE', #89, .T. ) ;
#236 = EDGE_LOOP ( 'NONE', ( #5 ) ) ;
#237 = CARTESIAN_POINT ( 'NONE',  ( 1.187103655206665341E-13, -1.474514954580286030E-14, 34.00000000000000000 ) ) ;
#238 = DIRECTION ( 'NONE',  ( -3.491481338843133355E-15, 1.224646799147353207E-16, -1.000000000000000000 ) ) ;
#239 = DIRECTION ( 'NONE',  ( 0.0000000000000000000, 1.000000000000000000, 0.0000000000000000000 ) ) ;
#240 = VERTEX_POINT ( 'NONE', #112 ) ;
#241 = DATE_AND_TIME ( #76, #102 ) ;
#242 = APPROVAL_STATUS ( 'not_yet_approved' ) ;
#243 = CC_DESIGN_APPROVAL ( #195, ( #96 ) ) ;
#244 = DIRECTION ( 'NONE',  ( 0.0000000000000000000, 1.000000000000000000, 0.0000000000000000000 ) ) ;
#245 = APPROVAL_DATE_TIME ( #81, #86 ) ;
#246 = EDGE_LOOP ( 'NONE', ( #249 ) ) ;
#247 = APPROVAL_PERSON_ORGANIZATION ( #204, #195, #93 ) ;
#248 = CC_DESIGN_DATE_AND_TIME_ASSIGNMENT ( #241, #132, ( #4 ) ) ;
#249 = ORIENTED_EDGE ( 'NONE', *, *, #174, .T. ) ;
#250 = PLANE ( 'NONE',  #182 ) ;
#251 = DIRECTION ( 'NONE',  ( 0.0000000000000000000, -1.000000000000000000, 0.0000000000000000000 ) ) ;
#252 = CYLINDRICAL_SURFACE ( 'NONE', #75, 3.999999999999994227 ) ;
#253 = APPROVAL_PERSON_ORGANIZATION ( #84, #86, #97 ) ;
#254 = EDGE_CURVE ( 'NONE', #79, #79, #139, .T. ) ;
#255 = EDGE_LOOP ( 'NONE', ( #60 ) ) ;
#256 = CARTESIAN_POINT ( 'NONE',  ( 0.0000000000000000000, 0.0000000000000000000, 0.0000000000000000000 ) ) ;
#257 = DIRECTION ( 'NONE',  ( 0.0000000000000000000, 1.000000000000000000, 0.0000000000000000000 ) ) ;
#258 = PERSON_AND_ORGANIZATION ( #29, #113 ) ;
#259 = CARTESIAN_POINT ( 'NONE',  ( 8.379555213223520053E-14, 2.999519565323704815E-32, 24.00000000000000000 ) ) ;
#260 = PERSON_AND_ORGANIZATION ( #29, #113 ) ;
#261 = CIRCLE ( 'NONE', #137, 3.999999999999997335 ) ;
#262 = APPLICATION_PROTOCOL_DEFINITION ( 'international standard', 'config_control_design', 1994, #65 ) ;
#263 = CARTESIAN_POINT ( 'NONE',  ( 4.066544898671447709E-15, -3.200000000000005507, 1.164704749651864324 ) ) ;
ENDSEC;
END-ISO-10303-21;
