ISO-10303-21;
HEADER;
FILE_DESCRIPTION (( 'STEP AP203' ),
    '1' );
FILE_NAME ('6362.step',
    '2021-12-06T13:00:01',
    ( '' ),
    ( '' ),
    'SwSTEP 2.0',
    'SolidWorks 2019',
    '' );
FILE_SCHEMA (( 'CONFIG_CONTROL_DESIGN' ));
ENDSEC;

DATA;
#1 = DATE_AND_TIME ( #122, #123 ) ;
#2 = APPROVAL_STATUS ( 'not_yet_approved' ) ;
#3 = AXIS2_PLACEMENT_3D ( 'NONE', #117, #24, #114 ) ;
#4 = CIRCLE ( 'NONE', #67, 4.000000000000000000 ) ;
#5 = ORIENTED_EDGE ( 'NONE', *, *, #163, .F. ) ;
#6 = COORDINATED_UNIVERSAL_TIME_OFFSET ( 1, 0, .AHEAD. ) ;
#7 = FACE_OUTER_BOUND ( 'NONE', #15, .T. ) ;
#8 = ORGANIZATION ( 'UNSPECIFIED', 'UNSPECIFIED', '' ) ;
#9 =( NAMED_UNIT ( * ) SI_UNIT ( $, .STERADIAN. ) SOLID_ANGLE_UNIT ( ) );
#10 = APPLICATION_PROTOCOL_DEFINITION ( 'international standard', 'config_control_design', 1994, #82 ) ;
#11 = FACE_OUTER_BOUND ( 'NONE', #164, .T. ) ;
#12 = DATE_AND_TIME ( #149, #44 ) ;
#13 = APPROVAL_ROLE ( '' ) ;
#14 = PERSON_AND_ORGANIZATION_ROLE ( 'design_owner' ) ;
#15 = EDGE_LOOP ( 'NONE', ( #86 ) ) ;
#16 = AXIS2_PLACEMENT_3D ( 'NONE', #68, #23, #92 ) ;
#17 = DIRECTION ( 'NONE',  ( 4.275831445896957731E-31, 1.000000000000000000, 1.224646799147352961E-16 ) ) ;
#18 = FACE_BOUND ( 'NONE', #28, .T. ) ;
#19 = VERTEX_POINT ( 'NONE', #152 ) ;
#20 = EDGE_CURVE ( 'NONE', #35, #35, #4, .T. ) ;
#21 = LOCAL_TIME ( 14, 0, 1.000000000000000000, #104 ) ;
#22 = CC_DESIGN_SECURITY_CLASSIFICATION ( #39, ( #64 ) ) ;
#23 = DIRECTION ( 'NONE',  ( 3.491481338843133355E-15, -1.224646799147352961E-16, 1.000000000000000000 ) ) ;
#24 = DIRECTION ( 'NONE',  ( -3.491481338843133355E-15, 1.224646799147352961E-16, -1.000000000000000000 ) ) ;
#25 = PERSON_AND_ORGANIZATION ( #128, #8 ) ;
#26 = PERSON_AND_ORGANIZATION ( #128, #8 ) ;
#27 = DESIGN_CONTEXT ( 'detailed design', #51, 'design' ) ;
#28 = EDGE_LOOP ( 'NONE', ( #29 ) ) ;
#29 = ORIENTED_EDGE ( 'NONE', *, *, #73, .T. ) ;
#30 = EDGE_LOOP ( 'NONE', ( #161 ) ) ;
#31 = CC_DESIGN_PERSON_AND_ORGANIZATION_ASSIGNMENT ( #26, #120, ( #64 ) ) ;
#32 = DIRECTION ( 'NONE',  ( 4.275831445896957731E-31, 1.000000000000000000, 1.224646799147352961E-16 ) ) ;
#33 =( GEOMETRIC_REPRESENTATION_CONTEXT ( 3 ) GLOBAL_UNCERTAINTY_ASSIGNED_CONTEXT ( ( #108 ) ) GLOBAL_UNIT_ASSIGNED_CONTEXT ( ( #168, #153, #9 ) ) REPRESENTATION_CONTEXT ( 'NONE', 'WORKASPACE' ) );
#34 = PRODUCT ( '6362', '6362', '', ( #165 ) ) ;
#35 = VERTEX_POINT ( 'NONE', #156 ) ;
#36 = CARTESIAN_POINT ( 'NONE',  ( -6.413747168845436684E-30, 2.249639673992785317E-31, -1.836970198721029194E-15 ) ) ;
#37 = APPROVAL ( #148, 'UNSPECIFIED' ) ;
#38 = CARTESIAN_POINT ( 'NONE',  ( 6.284666409917640040E-15, 15.00000000000000000, 1.800000000000000044 ) ) ;
#39 = SECURITY_CLASSIFICATION ( '', '', #57 ) ;
#40 = DIRECTION ( 'NONE',  ( 4.275831445896957731E-31, 1.000000000000000000, 1.224646799147352714E-16 ) ) ;
#41 = DIRECTION ( 'NONE',  ( -3.491481338843133355E-15, 1.224646799147352961E-16, -1.000000000000000000 ) ) ;
#42 = ADVANCED_FACE ( 'NONE', ( #76, #116 ), #126, .T. ) ;
#43 = DATE_TIME_ROLE ( 'classification_date' ) ;
#44 = LOCAL_TIME ( 14, 0, 1.000000000000000000, #81 ) ;
#45 = PERSON_AND_ORGANIZATION ( #128, #8 ) ;
#46 = ADVANCED_FACE ( 'NONE', ( #11, #102 ), #93, .T. ) ;
#47 = PERSON_AND_ORGANIZATION_ROLE ( 'classification_officer' ) ;
#48 = ORIENTED_EDGE ( 'NONE', *, *, #163, .T. ) ;
#49 = AXIS2_PLACEMENT_3D ( 'NONE', #66, #89, #132 ) ;
#50 = CC_DESIGN_PERSON_AND_ORGANIZATION_ASSIGNMENT ( #45, #14, ( #34 ) ) ;
#51 = APPLICATION_CONTEXT ( 'configuration controlled 3d designs of mechanical parts and assemblies' ) ;
#52 = EDGE_LOOP ( 'NONE', ( #5 ) ) ;
#53 = VERTEX_POINT ( 'NONE', #88 ) ;
#54 = CYLINDRICAL_SURFACE ( 'NONE', #3, 4.000000000000000000 ) ;
#55 = DIRECTION ( 'NONE',  ( -3.491481338843133355E-15, 1.224646799147352961E-16, -1.000000000000000000 ) ) ;
#56 = CARTESIAN_POINT ( 'NONE',  ( 6.284666409917638462E-15, -2.204364238465234590E-16, 1.799999999999999600 ) ) ;
#57 = SECURITY_CLASSIFICATION_LEVEL ( 'unclassified' ) ;
#58 = PERSON_AND_ORGANIZATION ( #128, #8 ) ;
#59 = CLOSED_SHELL ( 'NONE', ( #46, #42, #69, #155 ) ) ;
#60 = PERSON_AND_ORGANIZATION ( #128, #8 ) ;
#61 = CC_DESIGN_APPROVAL ( #74, ( #100 ) ) ;
#62 = MANIFOLD_SOLID_BREP ( 'Corps-Déplacer/Copier1', #59 ) ;
#63 = APPROVAL ( #2, 'UNSPECIFIED' ) ;
#64 = PRODUCT_DEFINITION_FORMATION_WITH_SPECIFIED_SOURCE ( 'ANY', '', #34, .NOT_KNOWN. ) ;
#65 = CARTESIAN_POINT ( 'NONE',  ( 6.284666409917633729E-15, -2.204364238465233111E-16, 1.799999999999998268 ) ) ;
#66 = CARTESIAN_POINT ( 'NONE',  ( 0.0000000000000000000, 0.0000000000000000000, 0.0000000000000000000 ) ) ;
#67 = AXIS2_PLACEMENT_3D ( 'NONE', #143, #151, #32 ) ;
#68 = CARTESIAN_POINT ( 'NONE',  ( 6.284666409917637673E-15, 4.000000000000000000, 1.799999999999999378 ) ) ;
#69 = ADVANCED_FACE ( 'NONE', ( #18, #118 ), #154, .T. ) ;
#70 = APPROVAL_DATE_TIME ( #12, #63 ) ;
#71 = APPROVAL_DATE_TIME ( #169, #74 ) ;
#72 = COORDINATED_UNIVERSAL_TIME_OFFSET ( 1, 0, .AHEAD. ) ;
#73 = EDGE_CURVE ( 'NONE', #19, #19, #130, .T. ) ;
#74 = APPROVAL ( #158, 'UNSPECIFIED' ) ;
#75 = ORIENTED_EDGE ( 'NONE', *, *, #96, .T. ) ;
#76 = FACE_OUTER_BOUND ( 'NONE', #139, .T. ) ;
#77 = CARTESIAN_POINT ( 'NONE',  ( 0.0000000000000000000, 0.0000000000000000000, 0.0000000000000000000 ) ) ;
#78 = DIRECTION ( 'NONE',  ( 4.108650548026103445E-31, 1.000000000000000000, 1.156482317317871478E-16 ) ) ;
#79 = AXIS2_PLACEMENT_3D ( 'NONE', #36, #41, #40 ) ;
#80 = CC_DESIGN_DATE_AND_TIME_ASSIGNMENT ( #1, #106, ( #100 ) ) ;
#81 = COORDINATED_UNIVERSAL_TIME_OFFSET ( 1, 0, .AHEAD. ) ;
#82 = APPLICATION_CONTEXT ( 'configuration controlled 3d designs of mechanical parts and assemblies' ) ;
#83 = CALENDAR_DATE ( 2021, 6, 12 ) ;
#84 = APPLICATION_PROTOCOL_DEFINITION ( 'international standard', 'config_control_design', 1994, #51 ) ;
#85 = ADVANCED_BREP_SHAPE_REPRESENTATION ( '6362', ( #62, #49 ), #33 ) ;
#86 = ORIENTED_EDGE ( 'NONE', *, *, #20, .T. ) ;
#87 = ORIENTED_EDGE ( 'NONE', *, *, #20, .F. ) ;
#88 = CARTESIAN_POINT ( 'NONE',  ( 0.0000000000000000000, 15.00000000000000000, 0.0000000000000000000 ) ) ;
#89 = DIRECTION ( 'NONE',  ( 0.0000000000000000000, 0.0000000000000000000, 1.000000000000000000 ) ) ;
#90 = VERTEX_POINT ( 'NONE', #38 ) ;
#91 = APPROVAL_PERSON_ORGANIZATION ( #94, #37, #13 ) ;
#92 = DIRECTION ( 'NONE',  ( -4.275831445896957731E-31, -1.000000000000000000, -1.224646799147352961E-16 ) ) ;
#93 = PLANE ( 'NONE',  #109 ) ;
#94 = PERSON_AND_ORGANIZATION ( #128, #8 ) ;
#95 = COORDINATED_UNIVERSAL_TIME_OFFSET ( 1, 0, .AHEAD. ) ;
#96 = EDGE_CURVE ( 'NONE', #53, #53, #119, .T. ) ;
#97 = CC_DESIGN_PERSON_AND_ORGANIZATION_ASSIGNMENT ( #60, #107, ( #64 ) ) ;
#98 = CC_DESIGN_APPROVAL ( #63, ( #64 ) ) ;
#99 = EDGE_LOOP ( 'NONE', ( #142 ) ) ;
#100 = PRODUCT_DEFINITION ( 'UNKNOWN', '', #64, #27 ) ;
#101 = LOCAL_TIME ( 14, 0, 1.000000000000000000, #72 ) ;
#102 = FACE_BOUND ( 'NONE', #110, .T. ) ;
#103 = CARTESIAN_POINT ( 'NONE',  ( -2.351707295243326621E-30, 4.000000000000000000, -6.735557395310441037E-16 ) ) ;
#104 = COORDINATED_UNIVERSAL_TIME_OFFSET ( 1, 0, .AHEAD. ) ;
#105 = CC_DESIGN_DATE_AND_TIME_ASSIGNMENT ( #157, #43, ( #39 ) ) ;
#106 = DATE_TIME_ROLE ( 'creation_date' ) ;
#107 = PERSON_AND_ORGANIZATION_ROLE ( 'creator' ) ;
#108 = UNCERTAINTY_MEASURE_WITH_UNIT (LENGTH_MEASURE( 1.000000000000000082E-05 ), #168, 'distance_accuracy_value', 'NONE');
#109 = AXIS2_PLACEMENT_3D ( 'NONE', #103, #129, #17 ) ;
#110 = EDGE_LOOP ( 'NONE', ( #87 ) ) ;
#111 = CALENDAR_DATE ( 2021, 6, 12 ) ;
#112 = SHAPE_DEFINITION_REPRESENTATION ( #127, #85 ) ;
#113 = DIRECTION ( 'NONE',  ( -3.491481338843133355E-15, 1.224646799147352961E-16, -1.000000000000000000 ) ) ;
#114 = DIRECTION ( 'NONE',  ( 4.275831445896957731E-31, 1.000000000000000000, 1.224646799147352961E-16 ) ) ;
#115 = CIRCLE ( 'NONE', #160, 15.00000000000000000 ) ;
#116 = FACE_OUTER_BOUND ( 'NONE', #99, .T. ) ;
#117 = CARTESIAN_POINT ( 'NONE',  ( 0.0000000000000000000, 0.0000000000000000000, 0.0000000000000000000 ) ) ;
#118 = FACE_OUTER_BOUND ( 'NONE', #52, .T. ) ;
#119 = CIRCLE ( 'NONE', #79, 15.00000000000000000 ) ;
#120 = PERSON_AND_ORGANIZATION_ROLE ( 'design_supplier' ) ;
#121 = PERSON_AND_ORGANIZATION_ROLE ( 'creator' ) ;
#122 = CALENDAR_DATE ( 2021, 6, 12 ) ;
#123 = LOCAL_TIME ( 14, 0, 1.000000000000000000, #95 ) ;
#124 = CC_DESIGN_PERSON_AND_ORGANIZATION_ASSIGNMENT ( #137, #121, ( #100 ) ) ;
#125 = CC_DESIGN_PERSON_AND_ORGANIZATION_ASSIGNMENT ( #147, #47, ( #39 ) ) ;
#126 = CYLINDRICAL_SURFACE ( 'NONE', #167, 15.00000000000000000 ) ;
#127 = PRODUCT_DEFINITION_SHAPE ( 'NONE', 'NONE',  #100 ) ;
#128 = PERSON ( 'UNSPECIFIED', 'UNSPECIFIED', 'UNSPECIFIED', ('UNSPECIFIED'), ('UNSPECIFIED'), ('UNSPECIFIED') ) ;
#129 = DIRECTION ( 'NONE',  ( -3.491481338843133355E-15, 1.224646799147352961E-16, -1.000000000000000000 ) ) ;
#130 = CIRCLE ( 'NONE', #145, 4.000000000000000000 ) ;
#131 = PRODUCT_RELATED_PRODUCT_CATEGORY ( 'detail', '', ( #34 ) ) ;
#132 = DIRECTION ( 'NONE',  ( 1.000000000000000000, 0.0000000000000000000, 0.0000000000000000000 ) ) ;
#133 = DIRECTION ( 'NONE',  ( 4.275831445896957731E-31, 1.000000000000000000, 1.224646799147352714E-16 ) ) ;
#134 = CALENDAR_DATE ( 2021, 6, 12 ) ;
#135 = APPROVAL_PERSON_ORGANIZATION ( #25, #74, #136 ) ;
#136 = APPROVAL_ROLE ( '' ) ;
#137 = PERSON_AND_ORGANIZATION ( #128, #8 ) ;
#138 = LOCAL_TIME ( 14, 0, 1.000000000000000000, #6 ) ;
#139 = EDGE_LOOP ( 'NONE', ( #48 ) ) ;
#140 = APPROVAL_PERSON_ORGANIZATION ( #58, #63, #159 ) ;
#141 = APPROVAL_DATE_TIME ( #162, #37 ) ;
#142 = ORIENTED_EDGE ( 'NONE', *, *, #96, .F. ) ;
#143 = CARTESIAN_POINT ( 'NONE',  ( -1.710332578358782742E-30, 5.999039130647427147E-32, -4.898587196589411843E-16 ) ) ;
#144 = DIRECTION ( 'NONE',  ( 3.851859888774471706E-31, 1.000000000000000000, 1.084202172485504434E-16 ) ) ;
#145 = AXIS2_PLACEMENT_3D ( 'NONE', #56, #55, #144 ) ;
#146 = DIRECTION ( 'NONE',  ( -3.491481338843133355E-15, 1.224646799147352961E-16, -1.000000000000000000 ) ) ;
#147 = PERSON_AND_ORGANIZATION ( #128, #8 ) ;
#148 = APPROVAL_STATUS ( 'not_yet_approved' ) ;
#149 = CALENDAR_DATE ( 2021, 6, 12 ) ;
#150 = CC_DESIGN_APPROVAL ( #37, ( #39 ) ) ;
#151 = DIRECTION ( 'NONE',  ( -3.491481338843133355E-15, 1.224646799147352961E-16, -1.000000000000000000 ) ) ;
#152 = CARTESIAN_POINT ( 'NONE',  ( 6.284666409917640040E-15, 4.000000000000000000, 1.800000000000000044 ) ) ;
#153 =( NAMED_UNIT ( * ) PLANE_ANGLE_UNIT ( ) SI_UNIT ( $, .RADIAN. ) );
#154 = PLANE ( 'NONE',  #16 ) ;
#155 = ADVANCED_FACE ( 'NONE', ( #7, #166 ), #54, .F. ) ;
#156 = CARTESIAN_POINT ( 'NONE',  ( 3.421138828918010427E-46, 4.000000000000000000, 0.0000000000000000000 ) ) ;
#157 = DATE_AND_TIME ( #83, #21 ) ;
#158 = APPROVAL_STATUS ( 'not_yet_approved' ) ;
#159 = APPROVAL_ROLE ( '' ) ;
#160 = AXIS2_PLACEMENT_3D ( 'NONE', #65, #113, #78 ) ;
#161 = ORIENTED_EDGE ( 'NONE', *, *, #73, .F. ) ;
#162 = DATE_AND_TIME ( #111, #138 ) ;
#163 = EDGE_CURVE ( 'NONE', #90, #90, #115, .T. ) ;
#164 = EDGE_LOOP ( 'NONE', ( #75 ) ) ;
#165 = MECHANICAL_CONTEXT ( 'NONE', #82, 'mechanical' ) ;
#166 = FACE_OUTER_BOUND ( 'NONE', #30, .T. ) ;
#167 = AXIS2_PLACEMENT_3D ( 'NONE', #77, #146, #133 ) ;
#168 =( LENGTH_UNIT ( ) NAMED_UNIT ( * ) SI_UNIT ( .MILLI., .METRE. ) );
#169 = DATE_AND_TIME ( #134, #101 ) ;
ENDSEC;
END-ISO-10303-21;
