ISO-10303-21;
HEADER;
FILE_DESCRIPTION (( 'STEP AP203' ),
    '1' );
FILE_NAME ('63610.step',
    '2021-11-10T06:36:14',
    ( '' ),
    ( '' ),
    'SwSTEP 2.0',
    'SolidWorks 2019',
    '' );
FILE_SCHEMA (( 'CONFIG_CONTROL_DESIGN' ));
ENDSEC;

DATA;
#1 = DIRECTION ( 'NONE',  ( 1.000000000000000000, 0.0000000000000000000, -3.469446951953622866E-15 ) ) ;
#2 = DIRECTION ( 'NONE',  ( -3.491481338843133355E-15, 1.224646799147353207E-16, -1.000000000000000000 ) ) ;
#3 = FACE_OUTER_BOUND ( 'NONE', #184, .T. ) ;
#4 = EDGE_LOOP ( 'NONE', ( #12 ) ) ;
#5 = SECURITY_CLASSIFICATION_LEVEL ( 'unclassified' ) ;
#6 = DIRECTION ( 'NONE',  ( 0.0000000000000000000, 0.0000000000000000000, 1.000000000000000000 ) ) ;
#7 = DATE_AND_TIME ( #89, #14 ) ;
#8 = CC_DESIGN_PERSON_AND_ORGANIZATION_ASSIGNMENT ( #215, #232, ( #138 ) ) ;
#9 = VERTEX_POINT ( 'NONE', #28 ) ;
#10 = DIRECTION ( 'NONE',  ( -4.275831445896958607E-31, -1.000000000000000000, -1.224646799147353207E-16 ) ) ;
#11 = AXIS2_PLACEMENT_3D ( 'NONE', #206, #61, #93 ) ;
#12 = ORIENTED_EDGE ( 'NONE', *, *, #44, .F. ) ;
#13 = ORIENTED_EDGE ( 'NONE', *, *, #156, .F. ) ;
#14 = LOCAL_TIME ( 7, 36, 14.00000000000000000, #177 ) ;
#15 = FACE_BOUND ( 'NONE', #151, .T. ) ;
#16 = CARTESIAN_POINT ( 'NONE',  ( 1.316288464743861212E-13, 1.499999999999994005, 37.69999999999999574 ) ) ;
#17 = CARTESIAN_POINT ( 'NONE',  ( 1.500000000000015987, 0.0000000000000000000, 5.688176125771332359 ) ) ;
#18 = AXIS2_PLACEMENT_3D ( 'NONE', #123, #2, #240 ) ;
#19 = AXIS2_PLACEMENT_3D ( 'NONE', #120, #158, #47 ) ;
#20 = UNCERTAINTY_MEASURE_WITH_UNIT (LENGTH_MEASURE( 1.000000000000000082E-05 ), #197, 'distance_accuracy_value', 'NONE');
#21 = CARTESIAN_POINT ( 'NONE',  ( 0.1000000000000005329, 0.0000000000000000000, 0.1999999999999989564 ) ) ;
#22 = ADVANCED_FACE ( 'NONE', ( #71, #193 ), #112, .T. ) ;
#23 = CARTESIAN_POINT ( 'NONE',  ( 1.986016079518365659E-14, 0.0000000000000000000, 5.688176125771337688 ) ) ;
#24 = DIRECTION ( 'NONE',  ( 1.000000000000000000, 0.0000000000000000000, -3.491481338843133355E-15 ) ) ;
#25 = DATE_TIME_ROLE ( 'classification_date' ) ;
#26 = APPLICATION_PROTOCOL_DEFINITION ( 'international standard', 'config_control_design', 1994, #121 ) ;
#27 = CC_DESIGN_PERSON_AND_ORGANIZATION_ASSIGNMENT ( #90, #48, ( #31 ) ) ;
#28 = CARTESIAN_POINT ( 'NONE',  ( 0.1681483474218623542, 0.0000000000000000000, 0.7176380902050276678 ) ) ;
#29 = MECHANICAL_CONTEXT ( 'NONE', #121, 'mechanical' ) ;
#30 = APPROVAL_STATUS ( 'not_yet_approved' ) ;
#31 = SECURITY_CLASSIFICATION ( '', '', #5 ) ;
#32 = CC_DESIGN_PERSON_AND_ORGANIZATION_ASSIGNMENT ( #200, #229, ( #137 ) ) ;
#33 = ADVANCED_FACE ( 'NONE', ( #157 ), #67, .T. ) ;
#34 = CC_DESIGN_APPROVAL ( #208, ( #137 ) ) ;
#35 = CIRCLE ( 'NONE', #128, 0.09999999999999982514 ) ;
#36 = APPLICATION_CONTEXT ( 'configuration controlled 3d designs of mechanical parts and assemblies' ) ;
#37 = EDGE_LOOP ( 'NONE', ( #72 ) ) ;
#38 = ADVANCED_FACE ( 'NONE', ( #95, #167 ), #77, .T. ) ;
#39 = MANIFOLD_SOLID_BREP ( 'Corps-Déplacer/Copier1[1]', #130 ) ;
#40 = DIRECTION ( 'NONE',  ( 3.491481338843133355E-15, -0.0000000000000000000, 1.000000000000000000 ) ) ;
#41 = AXIS2_PLACEMENT_3D ( 'NONE', #23, #205, #1 ) ;
#42 = DIRECTION ( 'NONE',  ( 4.275831445896958607E-31, 1.000000000000000000, 1.224646799147353207E-16 ) ) ;
#43 = VERTEX_POINT ( 'NONE', #21 ) ;
#44 = EDGE_CURVE ( 'NONE', #243, #243, #201, .T. ) ;
#45 = CARTESIAN_POINT ( 'NONE',  ( 1.326762908760390423E-13, 8.998558695971069014E-33, 38.00000000000000000 ) ) ;
#46 =( GEOMETRIC_REPRESENTATION_CONTEXT ( 3 ) GLOBAL_UNCERTAINTY_ASSIGNED_CONTEXT ( ( #20 ) ) GLOBAL_UNIT_ASSIGNED_CONTEXT ( ( #197, #74, #214 ) ) REPRESENTATION_CONTEXT ( 'NONE', 'WORKASPACE' ) );
#47 = DIRECTION ( 'NONE',  ( 1.000000000000000000, 0.0000000000000000000, -3.523657060577895721E-15 ) ) ;
#48 = PERSON_AND_ORGANIZATION_ROLE ( 'classification_officer' ) ;
#49 = DIRECTION ( 'NONE',  ( 1.000000000000000000, 0.0000000000000000000, 0.0000000000000000000 ) ) ;
#50 = CC_DESIGN_APPROVAL ( #55, ( #31 ) ) ;
#51 = AXIS2_PLACEMENT_3D ( 'NONE', #87, #154, #225 ) ;
#52 = APPLICATION_PROTOCOL_DEFINITION ( 'international standard', 'config_control_design', 1994, #36 ) ;
#53 = COORDINATED_UNIVERSAL_TIME_OFFSET ( 1, 0, .AHEAD. ) ;
#54 = TOROIDAL_SURFACE ( 'NONE', #187, 2.100000000000000089, 2.000000000000000000 ) ;
#55 = APPROVAL ( #68, 'UNSPECIFIED' ) ;
#56 = CONICAL_SURFACE ( 'NONE', #51, 1.199999999999998845, 0.7853981633974450594 ) ;
#57 = CLOSED_SHELL ( 'NONE', ( #33, #204, #124 ) ) ;
#58 = EDGE_LOOP ( 'NONE', ( #202 ) ) ;
#59 = EDGE_LOOP ( 'NONE', ( #115 ) ) ;
#60 = EDGE_LOOP ( 'NONE', ( #80 ) ) ;
#61 = DIRECTION ( 'NONE',  ( -3.491481338843133355E-15, 1.224646799147353207E-16, -1.000000000000000000 ) ) ;
#62 = PLANE ( 'NONE',  #108 ) ;
#63 = DIRECTION ( 'NONE',  ( 0.0000000000000000000, 1.000000000000000000, 0.0000000000000000000 ) ) ;
#64 = CYLINDRICAL_SURFACE ( 'NONE', #191, 0.09999999999999993616 ) ;
#65 = CARTESIAN_POINT ( 'NONE',  ( 6.982962677686250933E-16, 0.0000000000000000000, 0.1999999999999995393 ) ) ;
#66 = DIRECTION ( 'NONE',  ( 1.000000000000000000, 0.0000000000000000000, -3.491481338843133750E-15 ) ) ;
#67 = PLANE ( 'NONE',  #238 ) ;
#68 = APPROVAL_STATUS ( 'not_yet_approved' ) ;
#69 = CC_DESIGN_PERSON_AND_ORGANIZATION_ASSIGNMENT ( #212, #94, ( #137 ) ) ;
#70 = PERSON_AND_ORGANIZATION ( #105, #221 ) ;
#71 = FACE_BOUND ( 'NONE', #185, .T. ) ;
#72 = ORIENTED_EDGE ( 'NONE', *, *, #92, .T. ) ;
#73 = PERSON_AND_ORGANIZATION ( #105, #221 ) ;
#74 =( NAMED_UNIT ( * ) PLANE_ANGLE_UNIT ( ) SI_UNIT ( $, .RADIAN. ) );
#75 = APPROVAL_ROLE ( '' ) ;
#76 = CC_DESIGN_APPROVAL ( #220, ( #168 ) ) ;
#77 = CYLINDRICAL_SURFACE ( 'NONE', #11, 1.499999999999996225 ) ;
#78 = CIRCLE ( 'NONE', #88, 0.1681483474218598562 ) ;
#79 = CC_DESIGN_DATE_AND_TIME_ASSIGNMENT ( #125, #25, ( #31 ) ) ;
#80 = ORIENTED_EDGE ( 'NONE', *, *, #131, .F. ) ;
#81 = FACE_OUTER_BOUND ( 'NONE', #58, .T. ) ;
#82 = DIRECTION ( 'NONE',  ( 1.000000000000000000, 0.0000000000000000000, -3.469446951953622866E-15 ) ) ;
#83 = CIRCLE ( 'NONE', #218, 1.199999999999998845 ) ;
#84 = VERTEX_POINT ( 'NONE', #155 ) ;
#85 = VERTEX_POINT ( 'NONE', #144 ) ;
#86 = ADVANCED_FACE ( 'NONE', ( #227, #15 ), #56, .T. ) ;
#87 = CARTESIAN_POINT ( 'NONE',  ( 1.326762908760390423E-13, -4.653657836759941941E-15, 38.00000000000000000 ) ) ;
#88 = AXIS2_PLACEMENT_3D ( 'NONE', #153, #106, #142 ) ;
#89 = CALENDAR_DATE ( 2021, 10, 11 ) ;
#90 = PERSON_AND_ORGANIZATION ( #105, #221 ) ;
#91 = PERSON_AND_ORGANIZATION ( #105, #221 ) ;
#92 = EDGE_CURVE ( 'NONE', #43, #43, #160, .T. ) ;
#93 = DIRECTION ( 'NONE',  ( 4.275831445896958607E-31, 1.000000000000000000, 1.224646799147353207E-16 ) ) ;
#94 = PERSON_AND_ORGANIZATION_ROLE ( 'creator' ) ;
#95 = FACE_OUTER_BOUND ( 'NONE', #59, .T. ) ;
#96 = COORDINATED_UNIVERSAL_TIME_OFFSET ( 1, 0, .AHEAD. ) ;
#97 = EDGE_LOOP ( 'NONE', ( #100 ) ) ;
#98 = ADVANCED_FACE ( 'NONE', ( #226, #3 ), #54, .F. ) ;
#99 = ORIENTED_EDGE ( 'NONE', *, *, #114, .F. ) ;
#100 = ORIENTED_EDGE ( 'NONE', *, *, #134, .F. ) ;
#101 = DIRECTION ( 'NONE',  ( 3.491481338843133355E-15, -1.224646799147353207E-16, 1.000000000000000000 ) ) ;
#102 = CARTESIAN_POINT ( 'NONE',  ( 1.326762908760390423E-13, -4.653657836759941941E-15, 38.00000000000000000 ) ) ;
#103 = CARTESIAN_POINT ( 'NONE',  ( 6.982962677686242059E-16, 0.0000000000000000000, 0.1999999999999993172 ) ) ;
#104 = VERTEX_POINT ( 'NONE', #190 ) ;
#105 = PERSON ( 'UNSPECIFIED', 'UNSPECIFIED', 'UNSPECIFIED', ('UNSPECIFIED'), ('UNSPECIFIED'), ('UNSPECIFIED') ) ;
#106 = DIRECTION ( 'NONE',  ( 3.491481338843133355E-15, -0.0000000000000000000, 1.000000000000000000 ) ) ;
#107 = PERSON_AND_ORGANIZATION ( #105, #221 ) ;
#108 = AXIS2_PLACEMENT_3D ( 'NONE', #45, #192, #42 ) ;
#109 = ADVANCED_FACE ( 'NONE', ( #203 ), #207, .F. ) ;
#110 = CALENDAR_DATE ( 2021, 10, 11 ) ;
#111 = COORDINATED_UNIVERSAL_TIME_OFFSET ( 1, 0, .AHEAD. ) ;
#112 = CONICAL_SURFACE ( 'NONE', #41, 1.499999999999996225, 0.2617993877991428020 ) ;
#113 = AXIS2_PLACEMENT_3D ( 'NONE', #189, #209, #118 ) ;
#114 = EDGE_CURVE ( 'NONE', #104, #104, #83, .T. ) ;
#115 = ORIENTED_EDGE ( 'NONE', *, *, #44, .T. ) ;
#116 = DATE_AND_TIME ( #132, #217 ) ;
#117 = APPROVAL_PERSON_ORGANIZATION ( #91, #220, #75 ) ;
#118 = DIRECTION ( 'NONE',  ( -4.275831445896958607E-31, -1.000000000000000000, -1.224646799147353207E-16 ) ) ;
#119 = PLANE ( 'NONE',  #113 ) ;
#120 = CARTESIAN_POINT ( 'NONE',  ( 6.982962677686242059E-16, 0.0000000000000000000, 0.1999999999999993172 ) ) ;
#121 = APPLICATION_CONTEXT ( 'configuration controlled 3d designs of mechanical parts and assemblies' ) ;
#122 = DIRECTION ( 'NONE',  ( 1.000000000000000000, 0.0000000000000000000, -3.491481338843132961E-15 ) ) ;
#123 = CARTESIAN_POINT ( 'NONE',  ( 1.316288464743861212E-13, -4.616918432785521081E-15, 37.69999999999999574 ) ) ;
#124 = ADVANCED_FACE ( 'NONE', ( #194 ), #119, .F. ) ;
#125 = DATE_AND_TIME ( #127, #178 ) ;
#126 = MANIFOLD_SOLID_BREP ( 'Corps-Déplacer/Copier1[2]', #57 ) ;
#127 = CALENDAR_DATE ( 2021, 10, 11 ) ;
#128 = AXIS2_PLACEMENT_3D ( 'NONE', #103, #140, #239 ) ;
#129 = ORIENTED_EDGE ( 'NONE', *, *, #195, .T. ) ;
#130 = CLOSED_SHELL ( 'NONE', ( #38, #86, #231, #98, #22, #109 ) ) ;
#131 = EDGE_CURVE ( 'NONE', #174, #174, #242, .T. ) ;
#132 = CALENDAR_DATE ( 2021, 10, 11 ) ;
#133 = EDGE_LOOP ( 'NONE', ( #223 ) ) ;
#134 = EDGE_CURVE ( 'NONE', #84, #84, #35, .T. ) ;
#135 = ORIENTED_EDGE ( 'NONE', *, *, #195, .F. ) ;
#136 = DIRECTION ( 'NONE',  ( -3.491481338843133355E-15, 1.224646799147353207E-16, -1.000000000000000000 ) ) ;
#137 = PRODUCT_DEFINITION_FORMATION_WITH_SPECIFIED_SOURCE ( 'ANY', '', #138, .NOT_KNOWN. ) ;
#138 = PRODUCT ( '63610', '63610', '', ( #29 ) ) ;
#139 = DIRECTION ( 'NONE',  ( 3.491481338843133355E-15, -0.0000000000000000000, 1.000000000000000000 ) ) ;
#140 = DIRECTION ( 'NONE',  ( 3.491481338843133355E-15, -0.0000000000000000000, 1.000000000000000000 ) ) ;
#141 = LOCAL_TIME ( 7, 36, 14.00000000000000000, #111 ) ;
#142 = DIRECTION ( 'NONE',  ( 1.000000000000000000, 0.0000000000000000000, -3.223945370588145407E-15 ) ) ;
#143 = APPROVAL_ROLE ( '' ) ;
#144 = CARTESIAN_POINT ( 'NONE',  ( 0.1000000000000000472, 0.0000000000000000000, -3.491481338843134834E-16 ) ) ;
#145 = AXIS2_PLACEMENT_3D ( 'NONE', #188, #169, #82 ) ;
#146 = DATE_AND_TIME ( #179, #141 ) ;
#147 = APPROVAL_DATE_TIME ( #7, #208 ) ;
#148 = LOCAL_TIME ( 7, 36, 14.00000000000000000, #219 ) ;
#149 = ORIENTED_EDGE ( 'NONE', *, *, #114, .T. ) ;
#150 = EDGE_LOOP ( 'NONE', ( #99 ) ) ;
#151 = EDGE_LOOP ( 'NONE', ( #149 ) ) ;
#152 = EDGE_LOOP ( 'NONE', ( #176 ) ) ;
#153 = CARTESIAN_POINT ( 'NONE',  ( 2.505619999993881080E-15, 0.0000000000000000000, 0.7176380902050282229 ) ) ;
#154 = DIRECTION ( 'NONE',  ( -3.491481338843133355E-15, 1.224646799147353207E-16, -1.000000000000000000 ) ) ;
#155 = CARTESIAN_POINT ( 'NONE',  ( 0.1000000000000005329, 0.0000000000000000000, 0.1999999999999989564 ) ) ;
#156 = EDGE_CURVE ( 'NONE', #85, #85, #216, .T. ) ;
#157 = FACE_OUTER_BOUND ( 'NONE', #133, .T. ) ;
#158 = DIRECTION ( 'NONE',  ( 3.491481338843133355E-15, -0.0000000000000000000, 1.000000000000000000 ) ) ;
#159 = DIRECTION ( 'NONE',  ( 3.491481338843133355E-15, -0.0000000000000000000, 1.000000000000000000 ) ) ;
#160 = CIRCLE ( 'NONE', #19, 0.09999999999999982514 ) ;
#161 = ORIENTED_EDGE ( 'NONE', *, *, #131, .T. ) ;
#162 = APPROVAL_ROLE ( '' ) ;
#163 = APPROVAL_DATE_TIME ( #234, #220 ) ;
#164 = PERSON_AND_ORGANIZATION_ROLE ( 'creator' ) ;
#165 = AXIS2_PLACEMENT_3D ( 'NONE', #211, #159, #24 ) ;
#166 = PRODUCT_RELATED_PRODUCT_CATEGORY ( 'detail', '', ( #138 ) ) ;
#167 = FACE_OUTER_BOUND ( 'NONE', #233, .T. ) ;
#168 = PRODUCT_DEFINITION ( 'UNKNOWN', '', #137, #173 ) ;
#169 = DIRECTION ( 'NONE',  ( 3.491481338843133355E-15, -0.0000000000000000000, 1.000000000000000000 ) ) ;
#170 = DIRECTION ( 'NONE',  ( -4.275831445896958607E-31, -1.000000000000000000, -1.224646799147353207E-16 ) ) ;
#171 = CARTESIAN_POINT ( 'NONE',  ( 6.982962677686259808E-16, -2.529805069132848096E-17, 0.1999999999999997891 ) ) ;
#172 = CC_DESIGN_SECURITY_CLASSIFICATION ( #31, ( #137 ) ) ;
#173 = DESIGN_CONTEXT ( 'detailed design', #36, 'design' ) ;
#174 = VERTEX_POINT ( 'NONE', #17 ) ;
#175 = FACE_OUTER_BOUND ( 'NONE', #97, .T. ) ;
#176 = ORIENTED_EDGE ( 'NONE', *, *, #92, .F. ) ;
#177 = COORDINATED_UNIVERSAL_TIME_OFFSET ( 1, 0, .AHEAD. ) ;
#178 = LOCAL_TIME ( 7, 36, 14.00000000000000000, #53 ) ;
#179 = CALENDAR_DATE ( 2021, 10, 11 ) ;
#180 = APPROVAL_STATUS ( 'not_yet_approved' ) ;
#181 = AXIS2_PLACEMENT_3D ( 'NONE', #230, #6, #49 ) ;
#182 = APPROVAL_DATE_TIME ( #116, #55 ) ;
#183 = AXIS2_PLACEMENT_3D ( 'NONE', #171, #101, #170 ) ;
#184 = EDGE_LOOP ( 'NONE', ( #135 ) ) ;
#185 = EDGE_LOOP ( 'NONE', ( #129 ) ) ;
#186 = DIRECTION ( 'NONE',  ( 3.491481338843133355E-15, -1.224646799147353207E-16, 1.000000000000000000 ) ) ;
#187 = AXIS2_PLACEMENT_3D ( 'NONE', #65, #40, #122 ) ;
#188 = CARTESIAN_POINT ( 'NONE',  ( 1.986016079518365659E-14, 0.0000000000000000000, 5.688176125771337688 ) ) ;
#189 = CARTESIAN_POINT ( 'NONE',  ( -6.413803915257457113E-31, 2.249659577954772199E-32, -1.836986451539393076E-16 ) ) ;
#190 = CARTESIAN_POINT ( 'NONE',  ( 1.326762908760390423E-13, 1.199999999999994182, 38.00000000000000000 ) ) ;
#191 = AXIS2_PLACEMENT_3D ( 'NONE', #228, #139, #66 ) ;
#192 = DIRECTION ( 'NONE',  ( -3.491481338843133355E-15, 1.224646799147353207E-16, -1.000000000000000000 ) ) ;
#193 = FACE_OUTER_BOUND ( 'NONE', #60, .T. ) ;
#194 = FACE_OUTER_BOUND ( 'NONE', #196, .T. ) ;
#195 = EDGE_CURVE ( 'NONE', #9, #9, #78, .T. ) ;
#196 = EDGE_LOOP ( 'NONE', ( #13 ) ) ;
#197 =( LENGTH_UNIT ( ) NAMED_UNIT ( * ) SI_UNIT ( .MILLI., .METRE. ) );
#198 = DATE_TIME_ROLE ( 'creation_date' ) ;
#199 = ADVANCED_BREP_SHAPE_REPRESENTATION ( '63610', ( #39, #126, #181 ), #46 ) ;
#200 = PERSON_AND_ORGANIZATION ( #105, #221 ) ;
#201 = CIRCLE ( 'NONE', #18, 1.499999999999998446 ) ;
#202 = ORIENTED_EDGE ( 'NONE', *, *, #156, .T. ) ;
#203 = FACE_OUTER_BOUND ( 'NONE', #152, .T. ) ;
#204 = ADVANCED_FACE ( 'NONE', ( #81, #175 ), #64, .T. ) ;
#205 = DIRECTION ( 'NONE',  ( 3.491481338843133355E-15, -0.0000000000000000000, 1.000000000000000000 ) ) ;
#206 = CARTESIAN_POINT ( 'NONE',  ( 0.0000000000000000000, 0.0000000000000000000, 0.0000000000000000000 ) ) ;
#207 = PLANE ( 'NONE',  #183 ) ;
#208 = APPROVAL ( #180, 'UNSPECIFIED' ) ;
#209 = DIRECTION ( 'NONE',  ( 3.491481338843133355E-15, -1.224646799147353207E-16, 1.000000000000000000 ) ) ;
#210 = APPROVAL_PERSON_ORGANIZATION ( #107, #55, #143 ) ;
#211 = CARTESIAN_POINT ( 'NONE',  ( 0.0000000000000000000, 0.0000000000000000000, 0.0000000000000000000 ) ) ;
#212 = PERSON_AND_ORGANIZATION ( #105, #221 ) ;
#213 = CARTESIAN_POINT ( 'NONE',  ( 6.982962677686259808E-16, -2.529805069132848096E-17, 0.1999999999999997891 ) ) ;
#214 =( NAMED_UNIT ( * ) SI_UNIT ( $, .STERADIAN. ) SOLID_ANGLE_UNIT ( ) );
#215 = PERSON_AND_ORGANIZATION ( #105, #221 ) ;
#216 = CIRCLE ( 'NONE', #165, 0.1000000000000000472 ) ;
#217 = LOCAL_TIME ( 7, 36, 14.00000000000000000, #96 ) ;
#218 = AXIS2_PLACEMENT_3D ( 'NONE', #102, #136, #63 ) ;
#219 = COORDINATED_UNIVERSAL_TIME_OFFSET ( 1, 0, .AHEAD. ) ;
#220 = APPROVAL ( #30, 'UNSPECIFIED' ) ;
#221 = ORGANIZATION ( 'UNSPECIFIED', 'UNSPECIFIED', '' ) ;
#222 = PRODUCT_DEFINITION_SHAPE ( 'NONE', 'NONE',  #168 ) ;
#223 = ORIENTED_EDGE ( 'NONE', *, *, #134, .T. ) ;
#224 = FACE_OUTER_BOUND ( 'NONE', #150, .T. ) ;
#225 = DIRECTION ( 'NONE',  ( 0.0000000000000000000, 1.000000000000000000, 0.0000000000000000000 ) ) ;
#226 = FACE_OUTER_BOUND ( 'NONE', #37, .T. ) ;
#227 = FACE_OUTER_BOUND ( 'NONE', #4, .T. ) ;
#228 = CARTESIAN_POINT ( 'NONE',  ( -1.786038389295302186E-30, 0.0000000000000000000, -5.115417256925931626E-16 ) ) ;
#229 = PERSON_AND_ORGANIZATION_ROLE ( 'design_supplier' ) ;
#230 = CARTESIAN_POINT ( 'NONE',  ( 0.0000000000000000000, 0.0000000000000000000, 0.0000000000000000000 ) ) ;
#231 = ADVANCED_FACE ( 'NONE', ( #224 ), #62, .F. ) ;
#232 = PERSON_AND_ORGANIZATION_ROLE ( 'design_owner' ) ;
#233 = EDGE_LOOP ( 'NONE', ( #161 ) ) ;
#234 = DATE_AND_TIME ( #110, #148 ) ;
#235 = CC_DESIGN_PERSON_AND_ORGANIZATION_ASSIGNMENT ( #73, #164, ( #168 ) ) ;
#236 = CC_DESIGN_DATE_AND_TIME_ASSIGNMENT ( #146, #198, ( #168 ) ) ;
#237 = SHAPE_DEFINITION_REPRESENTATION ( #222, #199 ) ;
#238 = AXIS2_PLACEMENT_3D ( 'NONE', #213, #186, #10 ) ;
#239 = DIRECTION ( 'NONE',  ( 1.000000000000000000, 0.0000000000000000000, -3.523657060577895721E-15 ) ) ;
#240 = DIRECTION ( 'NONE',  ( 0.0000000000000000000, 1.000000000000000000, 0.0000000000000000000 ) ) ;
#241 = APPROVAL_PERSON_ORGANIZATION ( #70, #208, #162 ) ;
#242 = CIRCLE ( 'NONE', #145, 1.499999999999996225 ) ;
#243 = VERTEX_POINT ( 'NONE', #16 ) ;
ENDSEC;
END-ISO-10303-21;
