ISO-10303-21;
HEADER;
FILE_DESCRIPTION (( 'STEP AP203' ),
    '1' );
FILE_NAME ('6361.step',
    '2021-12-06T13:00:00',
    ( '' ),
    ( '' ),
    'SwSTEP 2.0',
    'SolidWorks 2019',
    '' );
FILE_SCHEMA (( 'CONFIG_CONTROL_DESIGN' ));
ENDSEC;

DATA;
#1 = EDGE_LOOP ( 'NONE', ( #79 ) ) ;
#2 = CC_DESIGN_DATE_AND_TIME_ASSIGNMENT ( #148, #18, ( #35 ) ) ;
#3 = APPLICATION_CONTEXT ( 'configuration controlled 3d designs of mechanical parts and assemblies' ) ;
#4 = CC_DESIGN_SECURITY_CLASSIFICATION ( #165, ( #74 ) ) ;
#5 = MANIFOLD_SOLID_BREP ( 'Corps-Déplacer/Copier1', #81 ) ;
#6 = EDGE_LOOP ( 'NONE', ( #142 ) ) ;
#7 = CIRCLE ( 'NONE', #25, 4.000000000000000000 ) ;
#8 = AXIS2_PLACEMENT_3D ( 'NONE', #169, #31, #106 ) ;
#9 = DATE_AND_TIME ( #123, #29 ) ;
#10 = PERSON_AND_ORGANIZATION_ROLE ( 'creator' ) ;
#11 = VERTEX_POINT ( 'NONE', #30 ) ;
#12 = DESIGN_CONTEXT ( 'detailed design', #19, 'design' ) ;
#13 = CARTESIAN_POINT ( 'NONE',  ( 8.728703347107830233E-15, 4.000000000000000000, 2.499999999999999112 ) ) ;
#14 =( NAMED_UNIT ( * ) PLANE_ANGLE_UNIT ( ) SI_UNIT ( $, .RADIAN. ) );
#15 = AXIS2_PLACEMENT_3D ( 'NONE', #139, #67, #112 ) ;
#16 = FACE_BOUND ( 'NONE', #6, .T. ) ;
#17 = EDGE_LOOP ( 'NONE', ( #69 ) ) ;
#18 = DATE_TIME_ROLE ( 'creation_date' ) ;
#19 = APPLICATION_CONTEXT ( 'configuration controlled 3d designs of mechanical parts and assemblies' ) ;
#20 = CC_DESIGN_DATE_AND_TIME_ASSIGNMENT ( #48, #71, ( #165 ) ) ;
#21 = COORDINATED_UNIVERSAL_TIME_OFFSET ( 1, 0, .AHEAD. ) ;
#22 = COORDINATED_UNIVERSAL_TIME_OFFSET ( 1, 0, .AHEAD. ) ;
#23 = PRODUCT_DEFINITION_SHAPE ( 'NONE', 'NONE',  #35 ) ;
#24 = APPROVAL_ROLE ( '' ) ;
#25 = AXIS2_PLACEMENT_3D ( 'NONE', #66, #113, #125 ) ;
#26 = PERSON_AND_ORGANIZATION ( #83, #129 ) ;
#27 = FACE_BOUND ( 'NONE', #157, .T. ) ;
#28 = CARTESIAN_POINT ( 'NONE',  ( -1.368266062687026964E-30, 3.839385043614356680E-32, -3.918869757271530953E-16 ) ) ;
#29 = LOCAL_TIME ( 14, 0, 0.0000000000000000000, #85 ) ;
#30 = CARTESIAN_POINT ( 'NONE',  ( -6.842277657836020854E-46, 15.00000000000000000, 0.0000000000000000000 ) ) ;
#31 = DIRECTION ( 'NONE',  ( -3.491481338843133355E-15, 9.797174393178827383E-17, -1.000000000000000000 ) ) ;
#32 = ADVANCED_FACE ( 'NONE', ( #144, #16 ), #114, .T. ) ;
#33 = LOCAL_TIME ( 14, 0, 0.0000000000000000000, #149 ) ;
#34 = FACE_OUTER_BOUND ( 'NONE', #156, .T. ) ;
#35 = PRODUCT_DEFINITION ( 'UNKNOWN', '', #74, #12 ) ;
#36 = PERSON_AND_ORGANIZATION_ROLE ( 'creator' ) ;
#37 = PERSON_AND_ORGANIZATION_ROLE ( 'design_owner' ) ;
#38 = PERSON_AND_ORGANIZATION ( #83, #129 ) ;
#39 = AXIS2_PLACEMENT_3D ( 'NONE', #80, #130, #70 ) ;
#40 = DIRECTION ( 'NONE',  ( -3.491481338843133355E-15, 9.797174393178827383E-17, -1.000000000000000000 ) ) ;
#41 = FACE_OUTER_BOUND ( 'NONE', #17, .T. ) ;
#42 = ORIENTED_EDGE ( 'NONE', *, *, #163, .T. ) ;
#43 = FACE_OUTER_BOUND ( 'NONE', #1, .T. ) ;
#44 = CIRCLE ( 'NONE', #15, 15.00000000000000000 ) ;
#45 = PERSON_AND_ORGANIZATION ( #83, #129 ) ;
#46 = DATE_AND_TIME ( #110, #33 ) ;
#47 = APPROVAL_DATE_TIME ( #46, #140 ) ;
#48 = DATE_AND_TIME ( #84, #119 ) ;
#49 = LOCAL_TIME ( 14, 0, 0.0000000000000000000, #61 ) ;
#50 = DIRECTION ( 'NONE',  ( -3.420665156717567411E-31, -1.000000000000000000, -9.797174393178827383E-17 ) ) ;
#51 =( NAMED_UNIT ( * ) SI_UNIT ( $, .STERADIAN. ) SOLID_ANGLE_UNIT ( ) );
#52 = CC_DESIGN_PERSON_AND_ORGANIZATION_ASSIGNMENT ( #108, #147, ( #165 ) ) ;
#53 = CARTESIAN_POINT ( 'NONE',  ( 8.728703347107830233E-15, 4.000000000000000000, 2.499999999999999112 ) ) ;
#54 = DIRECTION ( 'NONE',  ( 3.491481338843133355E-15, -9.797174393178827383E-17, 1.000000000000000000 ) ) ;
#55 = LOCAL_TIME ( 14, 0, 0.0000000000000000000, #21 ) ;
#56 = CYLINDRICAL_SURFACE ( 'NONE', #39, 4.000000000000000000 ) ;
#57 = FACE_OUTER_BOUND ( 'NONE', #117, .T. ) ;
#58 = CIRCLE ( 'NONE', #159, 15.00000000000000000 ) ;
#59 = APPROVAL ( #134, 'UNSPECIFIED' ) ;
#60 = PERSON_AND_ORGANIZATION ( #83, #129 ) ;
#61 = COORDINATED_UNIVERSAL_TIME_OFFSET ( 1, 0, .AHEAD. ) ;
#62 = DATE_AND_TIME ( #161, #49 ) ;
#63 = CALENDAR_DATE ( 2021, 6, 12 ) ;
#64 = CARTESIAN_POINT ( 'NONE',  ( 0.0000000000000000000, 4.000000000000000000, 0.0000000000000000000 ) ) ;
#65 = APPROVAL ( #160, 'UNSPECIFIED' ) ;
#66 = CARTESIAN_POINT ( 'NONE',  ( 8.728703347107828655E-15, -2.449293598294705921E-16, 2.499999999999998668 ) ) ;
#67 = DIRECTION ( 'NONE',  ( -3.491481338843133355E-15, 9.797174393178827383E-17, -1.000000000000000000 ) ) ;
#68 = AXIS2_PLACEMENT_3D ( 'NONE', #141, #166, #138 ) ;
#69 = ORIENTED_EDGE ( 'NONE', *, *, #163, .F. ) ;
#70 = DIRECTION ( 'NONE',  ( 3.420665156717567411E-31, 1.000000000000000000, 9.797174393178827383E-17 ) ) ;
#71 = DATE_TIME_ROLE ( 'classification_date' ) ;
#72 = APPLICATION_PROTOCOL_DEFINITION ( 'international standard', 'config_control_design', 1994, #19 ) ;
#73 = SHAPE_DEFINITION_REPRESENTATION ( #23, #132 ) ;
#74 = PRODUCT_DEFINITION_FORMATION_WITH_SPECIFIED_SOURCE ( 'ANY', '', #150, .NOT_KNOWN. ) ;
#75 = ADVANCED_FACE ( 'NONE', ( #95, #34 ), #56, .F. ) ;
#76 = CARTESIAN_POINT ( 'NONE',  ( 8.728703347107831810E-15, 15.00000000000000000, 2.499999999999999556 ) ) ;
#77 = DIRECTION ( 'NONE',  ( 0.0000000000000000000, 0.0000000000000000000, 1.000000000000000000 ) ) ;
#78 =( LENGTH_UNIT ( ) NAMED_UNIT ( * ) SI_UNIT ( .MILLI., .METRE. ) );
#79 = ORIENTED_EDGE ( 'NONE', *, *, #115, .F. ) ;
#80 = CARTESIAN_POINT ( 'NONE',  ( 0.0000000000000000000, 0.0000000000000000000, 0.0000000000000000000 ) ) ;
#81 = CLOSED_SHELL ( 'NONE', ( #32, #94, #158, #75 ) ) ;
#82 = CC_DESIGN_PERSON_AND_ORGANIZATION_ASSIGNMENT ( #60, #136, ( #74 ) ) ;
#83 = PERSON ( 'UNSPECIFIED', 'UNSPECIFIED', 'UNSPECIFIED', ('UNSPECIFIED'), ('UNSPECIFIED'), ('UNSPECIFIED') ) ;
#84 = CALENDAR_DATE ( 2021, 6, 12 ) ;
#85 = COORDINATED_UNIVERSAL_TIME_OFFSET ( 1, 0, .AHEAD. ) ;
#86 = PERSON_AND_ORGANIZATION ( #83, #129 ) ;
#87 = VERTEX_POINT ( 'NONE', #13 ) ;
#88 = CC_DESIGN_PERSON_AND_ORGANIZATION_ASSIGNMENT ( #45, #36, ( #35 ) ) ;
#89 = PLANE ( 'NONE',  #151 ) ;
#90 = DIRECTION ( 'NONE',  ( -3.491481338843133355E-15, 9.797174393178827383E-17, -1.000000000000000000 ) ) ;
#91 = PRODUCT_RELATED_PRODUCT_CATEGORY ( 'detail', '', ( #150 ) ) ;
#92 = EDGE_LOOP ( 'NONE', ( #146 ) ) ;
#93 = APPROVAL_PERSON_ORGANIZATION ( #122, #59, #24 ) ;
#94 = ADVANCED_FACE ( 'NONE', ( #57, #43 ), #111, .T. ) ;
#95 = FACE_OUTER_BOUND ( 'NONE', #116, .T. ) ;
#96 = APPROVAL_PERSON_ORGANIZATION ( #38, #65, #124 ) ;
#97 = PERSON_AND_ORGANIZATION ( #83, #129 ) ;
#98 = APPROVAL_STATUS ( 'not_yet_approved' ) ;
#99 = APPROVAL_DATE_TIME ( #62, #59 ) ;
#100 = APPLICATION_PROTOCOL_DEFINITION ( 'international standard', 'config_control_design', 1994, #3 ) ;
#101 = APPROVAL_PERSON_ORGANIZATION ( #86, #140, #133 ) ;
#102 = DIRECTION ( 'NONE',  ( 3.420665156717567411E-31, 1.000000000000000000, 9.797174393178827383E-17 ) ) ;
#103 = DIRECTION ( 'NONE',  ( 3.081487911019577365E-31, 1.000000000000000000, 8.673617379884035472E-17 ) ) ;
#104 = CARTESIAN_POINT ( 'NONE',  ( 8.728703347107827077E-15, -2.449293598294705428E-16, 2.499999999999998224 ) ) ;
#105 = ORIENTED_EDGE ( 'NONE', *, *, #121, .T. ) ;
#106 = DIRECTION ( 'NONE',  ( 3.420665156717567411E-31, 1.000000000000000000, 9.797174393178827383E-17 ) ) ;
#107 =( GEOMETRIC_REPRESENTATION_CONTEXT ( 3 ) GLOBAL_UNCERTAINTY_ASSIGNED_CONTEXT ( ( #155 ) ) GLOBAL_UNIT_ASSIGNED_CONTEXT ( ( #78, #14, #51 ) ) REPRESENTATION_CONTEXT ( 'NONE', 'WORKASPACE' ) );
#108 = PERSON_AND_ORGANIZATION ( #83, #129 ) ;
#109 = CC_DESIGN_PERSON_AND_ORGANIZATION_ASSIGNMENT ( #97, #10, ( #74 ) ) ;
#110 = CALENDAR_DATE ( 2021, 6, 12 ) ;
#111 = CYLINDRICAL_SURFACE ( 'NONE', #68, 15.00000000000000000 ) ;
#112 = DIRECTION ( 'NONE',  ( 3.420665156717567411E-31, 1.000000000000000000, 9.797174393178827383E-17 ) ) ;
#113 = DIRECTION ( 'NONE',  ( -3.491481338843133355E-15, 9.797174393178827383E-17, -1.000000000000000000 ) ) ;
#114 = PLANE ( 'NONE',  #8 ) ;
#115 = EDGE_CURVE ( 'NONE', #11, #11, #44, .T. ) ;
#116 = EDGE_LOOP ( 'NONE', ( #105 ) ) ;
#117 = EDGE_LOOP ( 'NONE', ( #42 ) ) ;
#118 = ORIENTED_EDGE ( 'NONE', *, *, #131, .T. ) ;
#119 = LOCAL_TIME ( 14, 0, 0.0000000000000000000, #22 ) ;
#120 = AXIS2_PLACEMENT_3D ( 'NONE', #28, #40, #102 ) ;
#121 = EDGE_CURVE ( 'NONE', #164, #164, #137, .T. ) ;
#122 = PERSON_AND_ORGANIZATION ( #83, #129 ) ;
#123 = CALENDAR_DATE ( 2021, 6, 12 ) ;
#124 = APPROVAL_ROLE ( '' ) ;
#125 = DIRECTION ( 'NONE',  ( 3.851859888774471706E-31, 1.000000000000000000, 1.084202172485504434E-16 ) ) ;
#126 = CC_DESIGN_APPROVAL ( #59, ( #165 ) ) ;
#127 = CARTESIAN_POINT ( 'NONE',  ( 0.0000000000000000000, 0.0000000000000000000, 0.0000000000000000000 ) ) ;
#128 = ORIENTED_EDGE ( 'NONE', *, *, #131, .F. ) ;
#129 = ORGANIZATION ( 'UNSPECIFIED', 'UNSPECIFIED', '' ) ;
#130 = DIRECTION ( 'NONE',  ( -3.491481338843133355E-15, 9.797174393178827383E-17, -1.000000000000000000 ) ) ;
#131 = EDGE_CURVE ( 'NONE', #87, #87, #7, .T. ) ;
#132 = ADVANCED_BREP_SHAPE_REPRESENTATION ( '6361', ( #5, #168 ), #107 ) ;
#133 = APPROVAL_ROLE ( '' ) ;
#134 = APPROVAL_STATUS ( 'not_yet_approved' ) ;
#135 = APPROVAL_DATE_TIME ( #9, #65 ) ;
#136 = PERSON_AND_ORGANIZATION_ROLE ( 'design_supplier' ) ;
#137 = CIRCLE ( 'NONE', #120, 4.000000000000000000 ) ;
#138 = DIRECTION ( 'NONE',  ( 3.420665156717567411E-31, 1.000000000000000000, 9.797174393178827383E-17 ) ) ;
#139 = CARTESIAN_POINT ( 'NONE',  ( -5.130997735076351729E-30, 1.439769391355383741E-31, -1.469576158976824144E-15 ) ) ;
#140 = APPROVAL ( #98, 'UNSPECIFIED' ) ;
#141 = CARTESIAN_POINT ( 'NONE',  ( 0.0000000000000000000, 0.0000000000000000000, 0.0000000000000000000 ) ) ;
#142 = ORIENTED_EDGE ( 'NONE', *, *, #121, .F. ) ;
#143 = CC_DESIGN_APPROVAL ( #65, ( #74 ) ) ;
#144 = FACE_OUTER_BOUND ( 'NONE', #92, .T. ) ;
#145 = CC_DESIGN_APPROVAL ( #140, ( #35 ) ) ;
#146 = ORIENTED_EDGE ( 'NONE', *, *, #115, .T. ) ;
#147 = PERSON_AND_ORGANIZATION_ROLE ( 'classification_officer' ) ;
#148 = DATE_AND_TIME ( #63, #55 ) ;
#149 = COORDINATED_UNIVERSAL_TIME_OFFSET ( 1, 0, .AHEAD. ) ;
#150 = PRODUCT ( '6361', '6361', '', ( #154 ) ) ;
#151 = AXIS2_PLACEMENT_3D ( 'NONE', #53, #54, #50 ) ;
#152 = VERTEX_POINT ( 'NONE', #76 ) ;
#153 = CC_DESIGN_PERSON_AND_ORGANIZATION_ASSIGNMENT ( #26, #37, ( #150 ) ) ;
#154 = MECHANICAL_CONTEXT ( 'NONE', #3, 'mechanical' ) ;
#155 = UNCERTAINTY_MEASURE_WITH_UNIT (LENGTH_MEASURE( 1.000000000000000082E-05 ), #78, 'distance_accuracy_value', 'NONE');
#156 = EDGE_LOOP ( 'NONE', ( #128 ) ) ;
#157 = EDGE_LOOP ( 'NONE', ( #118 ) ) ;
#158 = ADVANCED_FACE ( 'NONE', ( #27, #41 ), #89, .T. ) ;
#159 = AXIS2_PLACEMENT_3D ( 'NONE', #104, #90, #103 ) ;
#160 = APPROVAL_STATUS ( 'not_yet_approved' ) ;
#161 = CALENDAR_DATE ( 2021, 6, 12 ) ;
#162 = SECURITY_CLASSIFICATION_LEVEL ( 'unclassified' ) ;
#163 = EDGE_CURVE ( 'NONE', #152, #152, #58, .T. ) ;
#164 = VERTEX_POINT ( 'NONE', #64 ) ;
#165 = SECURITY_CLASSIFICATION ( '', '', #162 ) ;
#166 = DIRECTION ( 'NONE',  ( -3.491481338843133355E-15, 9.797174393178827383E-17, -1.000000000000000000 ) ) ;
#167 = DIRECTION ( 'NONE',  ( 1.000000000000000000, 0.0000000000000000000, 0.0000000000000000000 ) ) ;
#168 = AXIS2_PLACEMENT_3D ( 'NONE', #127, #77, #167 ) ;
#169 = CARTESIAN_POINT ( 'NONE',  ( -1.881365836194662207E-30, 4.000000000000000000, -5.388445916248354999E-16 ) ) ;
ENDSEC;
END-ISO-10303-21;
