ISO-10303-21;
HEADER;
FILE_DESCRIPTION (( 'STEP AP203' ),
    '1' );
FILE_NAME ('63609.step',
    '2021-11-10T06:36:13',
    ( '' ),
    ( '' ),
    'SwSTEP 2.0',
    'SolidWorks 2019',
    '' );
FILE_SCHEMA (( 'CONFIG_CONTROL_DESIGN' ));
ENDSEC;

DATA;
#1 = ADVANCED_FACE ( 'NONE', ( #169 ), #28, .T. ) ;
#2 = EDGE_LOOP ( 'NONE', ( #55 ) ) ;
#3 = CARTESIAN_POINT ( 'NONE',  ( -1.786038389295302186E-30, 0.0000000000000000000, -5.115417256925931626E-16 ) ) ;
#4 = FACE_OUTER_BOUND ( 'NONE', #205, .T. ) ;
#5 = APPROVAL ( #88, 'UNSPECIFIED' ) ;
#6 = AXIS2_PLACEMENT_3D ( 'NONE', #193, #60, #57 ) ;
#7 = DIRECTION ( 'NONE',  ( 3.491481338843133355E-15, -0.0000000000000000000, 1.000000000000000000 ) ) ;
#8 = EDGE_CURVE ( 'NONE', #218, #218, #83, .T. ) ;
#9 = CARTESIAN_POINT ( 'NONE',  ( 3.491481338843108703E-16, 0.0000000000000000000, 0.09999999999999929778 ) ) ;
#10 = LOCAL_TIME ( 7, 36, 13.00000000000000000, #121 ) ;
#11 = VERTEX_POINT ( 'NONE', #122 ) ;
#12 = DATE_AND_TIME ( #16, #187 ) ;
#13 = DIRECTION ( 'NONE',  ( 0.0000000000000000000, 1.000000000000000000, 0.0000000000000000000 ) ) ;
#14 = APPROVAL_STATUS ( 'not_yet_approved' ) ;
#15 = DIRECTION ( 'NONE',  ( 3.491481338843133355E-15, -1.224646799147353207E-16, 1.000000000000000000 ) ) ;
#16 = CALENDAR_DATE ( 2021, 10, 11 ) ;
#17 = CC_DESIGN_APPROVAL ( #5, ( #74 ) ) ;
#18 = ADVANCED_FACE ( 'NONE', ( #44, #117 ), #139, .F. ) ;
#19 = CC_DESIGN_PERSON_AND_ORGANIZATION_ASSIGNMENT ( #108, #90, ( #152 ) ) ;
#20 = CIRCLE ( 'NONE', #95, 0.04999999999999991257 ) ;
#21 = EDGE_LOOP ( 'NONE', ( #149 ) ) ;
#22 = DIRECTION ( 'NONE',  ( 1.000000000000000000, 0.0000000000000000000, -3.469446951953622866E-15 ) ) ;
#23 = FACE_OUTER_BOUND ( 'NONE', #207, .T. ) ;
#24 = DIRECTION ( 'NONE',  ( -3.491481338843133355E-15, 1.224646799147353207E-16, -1.000000000000000000 ) ) ;
#25 = APPLICATION_CONTEXT ( 'configuration controlled 3d designs of mechanical parts and assemblies' ) ;
#26 = EDGE_CURVE ( 'NONE', #220, #220, #79, .T. ) ;
#27 = AXIS2_PLACEMENT_3D ( 'NONE', #181, #65, #33 ) ;
#28 = PLANE ( 'NONE',  #174 ) ;
#29 = CC_DESIGN_DATE_AND_TIME_ASSIGNMENT ( #71, #146, ( #93 ) ) ;
#30 = CC_DESIGN_APPROVAL ( #119, ( #152 ) ) ;
#31 = DIRECTION ( 'NONE',  ( 1.000000000000000000, 0.0000000000000000000, 0.0000000000000000000 ) ) ;
#32 = SHAPE_DEFINITION_REPRESENTATION ( #227, #214 ) ;
#33 = DIRECTION ( 'NONE',  ( -4.275831445896958607E-31, -1.000000000000000000, -1.224646799147353207E-16 ) ) ;
#34 = VERTEX_POINT ( 'NONE', #105 ) ;
#35 = MECHANICAL_CONTEXT ( 'NONE', #25, 'mechanical' ) ;
#36 = DATE_AND_TIME ( #92, #221 ) ;
#37 = EDGE_LOOP ( 'NONE', ( #155 ) ) ;
#38 = AXIS2_PLACEMENT_3D ( 'NONE', #75, #150, #98 ) ;
#39 = EDGE_LOOP ( 'NONE', ( #189 ) ) ;
#40 = DIRECTION ( 'NONE',  ( 1.000000000000000000, 0.0000000000000000000, -3.523657060577880339E-15 ) ) ;
#41 = DIRECTION ( 'NONE',  ( 1.000000000000000000, 0.0000000000000000000, -3.491481338843133355E-15 ) ) ;
#42 =( GEOMETRIC_REPRESENTATION_CONTEXT ( 3 ) GLOBAL_UNCERTAINTY_ASSIGNED_CONTEXT ( ( #223 ) ) GLOBAL_UNIT_ASSIGNED_CONTEXT ( ( #138, #215, #159 ) ) REPRESENTATION_CONTEXT ( 'NONE', 'WORKASPACE' ) );
#43 = EDGE_LOOP ( 'NONE', ( #195 ) ) ;
#44 = FACE_OUTER_BOUND ( 'NONE', #111, .T. ) ;
#45 = CARTESIAN_POINT ( 'NONE',  ( 3.491481338843125960E-16, -1.264902534566423124E-17, 0.09999999999999978351 ) ) ;
#46 = AXIS2_PLACEMENT_3D ( 'NONE', #240, #68, #67 ) ;
#47 = DIRECTION ( 'NONE',  ( 3.491481338843133355E-15, -0.0000000000000000000, 1.000000000000000000 ) ) ;
#48 = AXIS2_PLACEMENT_3D ( 'NONE', #9, #7, #80 ) ;
#49 = CARTESIAN_POINT ( 'NONE',  ( 0.05000000000000048156, 0.0000000000000000000, 0.09999999999999911737 ) ) ;
#50 = PERSON_AND_ORGANIZATION_ROLE ( 'design_owner' ) ;
#51 = ADVANCED_FACE ( 'NONE', ( #64 ), #213, .F. ) ;
#52 = PERSON_AND_ORGANIZATION ( #180, #82 ) ;
#53 = FACE_OUTER_BOUND ( 'NONE', #224, .T. ) ;
#54 = COORDINATED_UNIVERSAL_TIME_OFFSET ( 1, 0, .AHEAD. ) ;
#55 = ORIENTED_EDGE ( 'NONE', *, *, #85, .T. ) ;
#56 = EDGE_LOOP ( 'NONE', ( #226 ) ) ;
#57 = DIRECTION ( 'NONE',  ( 1.000000000000000000, 0.0000000000000000000, -3.469446951953622866E-15 ) ) ;
#58 = CIRCLE ( 'NONE', #110, 0.1181483474218601587 ) ;
#59 = DIRECTION ( 'NONE',  ( 1.000000000000000000, 0.0000000000000000000, -3.491481338843132566E-15 ) ) ;
#60 = DIRECTION ( 'NONE',  ( 3.491481338843133355E-15, -0.0000000000000000000, 1.000000000000000000 ) ) ;
#61 = CC_DESIGN_APPROVAL ( #77, ( #93 ) ) ;
#62 = ADVANCED_FACE ( 'NONE', ( #151, #228 ), #131, .T. ) ;
#63 = EDGE_LOOP ( 'NONE', ( #166 ) ) ;
#64 = FACE_OUTER_BOUND ( 'NONE', #73, .T. ) ;
#65 = DIRECTION ( 'NONE',  ( 3.491481338843133355E-15, -1.224646799147353207E-16, 1.000000000000000000 ) ) ;
#66 = PERSON_AND_ORGANIZATION_ROLE ( 'design_supplier' ) ;
#67 = DIRECTION ( 'NONE',  ( 0.0000000000000000000, 1.000000000000000000, 0.0000000000000000000 ) ) ;
#68 = DIRECTION ( 'NONE',  ( -3.491481338843133355E-15, 1.224646799147353207E-16, -1.000000000000000000 ) ) ;
#69 = APPROVAL_STATUS ( 'not_yet_approved' ) ;
#70 = DIRECTION ( 'NONE',  ( -3.491481338843133355E-15, 1.224646799147353207E-16, -1.000000000000000000 ) ) ;
#71 = DATE_AND_TIME ( #141, #10 ) ;
#72 = ORIENTED_EDGE ( 'NONE', *, *, #26, .T. ) ;
#73 = EDGE_LOOP ( 'NONE', ( #190 ) ) ;
#74 = PRODUCT_DEFINITION ( 'UNKNOWN', '', #152, #186 ) ;
#75 = CARTESIAN_POINT ( 'NONE',  ( 0.0000000000000000000, 0.0000000000000000000, 0.0000000000000000000 ) ) ;
#76 = CYLINDRICAL_SURFACE ( 'NONE', #198, 0.05000000000000002359 ) ;
#77 = APPROVAL ( #69, 'UNSPECIFIED' ) ;
#78 = APPROVAL_PERSON_ORGANIZATION ( #204, #77, #236 ) ;
#79 = CIRCLE ( 'NONE', #48, 0.05000000000000012768 ) ;
#80 = DIRECTION ( 'NONE',  ( 1.000000000000000000, 0.0000000000000000000, -3.523657060577880339E-15 ) ) ;
#81 = CARTESIAN_POINT ( 'NONE',  ( 3.491481338843117578E-16, 0.0000000000000000000, 0.09999999999999954758 ) ) ;
#82 = ORGANIZATION ( 'UNSPECIFIED', 'UNSPECIFIED', '' ) ;
#83 = CIRCLE ( 'NONE', #116, 1.499999999999998446 ) ;
#84 = DIRECTION ( 'NONE',  ( 1.000000000000000000, 0.0000000000000000000, -3.670646932078551020E-15 ) ) ;
#85 = EDGE_CURVE ( 'NONE', #184, #184, #20, .T. ) ;
#86 = APPROVAL_DATE_TIME ( #12, #119 ) ;
#87 = FACE_OUTER_BOUND ( 'NONE', #101, .T. ) ;
#88 = APPROVAL_STATUS ( 'not_yet_approved' ) ;
#89 = FACE_BOUND ( 'NONE', #56, .T. ) ;
#90 = PERSON_AND_ORGANIZATION_ROLE ( 'creator' ) ;
#91 = CARTESIAN_POINT ( 'NONE',  ( 0.1181483474218623098, 0.0000000000000000000, 0.6176380902050276900 ) ) ;
#92 = CALENDAR_DATE ( 2021, 10, 11 ) ;
#93 = SECURITY_CLASSIFICATION ( '', '', #165 ) ;
#94 = ORIENTED_EDGE ( 'NONE', *, *, #148, .T. ) ;
#95 = AXIS2_PLACEMENT_3D ( 'NONE', #167, #99, #41 ) ;
#96 = ORIENTED_EDGE ( 'NONE', *, *, #26, .F. ) ;
#97 = ORIENTED_EDGE ( 'NONE', *, *, #148, .F. ) ;
#98 = DIRECTION ( 'NONE',  ( 4.275831445896958607E-31, 1.000000000000000000, 1.224646799147353207E-16 ) ) ;
#99 = DIRECTION ( 'NONE',  ( 3.491481338843133355E-15, -0.0000000000000000000, 1.000000000000000000 ) ) ;
#100 = CC_DESIGN_PERSON_AND_ORGANIZATION_ASSIGNMENT ( #52, #66, ( #152 ) ) ;
#101 = EDGE_LOOP ( 'NONE', ( #243 ) ) ;
#102 = DIRECTION ( 'NONE',  ( 3.491481338843133355E-15, -1.224646799147353207E-16, 1.000000000000000000 ) ) ;
#103 = ADVANCED_FACE ( 'NONE', ( #168, #4 ), #76, .T. ) ;
#104 = CC_DESIGN_PERSON_AND_ORGANIZATION_ASSIGNMENT ( #160, #242, ( #93 ) ) ;
#105 = CARTESIAN_POINT ( 'NONE',  ( 0.05000000000000048156, 0.0000000000000000000, 0.09999999999999911737 ) ) ;
#106 = CARTESIAN_POINT ( 'NONE',  ( 2.156471866109567744E-15, 0.0000000000000000000, 0.6176380902050281341 ) ) ;
#107 = APPROVAL_ROLE ( '' ) ;
#108 = PERSON_AND_ORGANIZATION ( #180, #82 ) ;
#109 = PERSON_AND_ORGANIZATION ( #180, #82 ) ;
#110 = AXIS2_PLACEMENT_3D ( 'NONE', #106, #47, #84 ) ;
#111 = EDGE_LOOP ( 'NONE', ( #72 ) ) ;
#112 = CARTESIAN_POINT ( 'NONE',  ( 2.016253194881141018E-14, 0.0000000000000000000, 5.774778666149783746 ) ) ;
#113 = APPLICATION_CONTEXT ( 'configuration controlled 3d designs of mechanical parts and assemblies' ) ;
#114 = FACE_BOUND ( 'NONE', #39, .T. ) ;
#115 = LOCAL_TIME ( 7, 36, 13.00000000000000000, #54 ) ;
#116 = AXIS2_PLACEMENT_3D ( 'NONE', #118, #233, #232 ) ;
#117 = FACE_OUTER_BOUND ( 'NONE', #43, .T. ) ;
#118 = CARTESIAN_POINT ( 'NONE',  ( 1.316288464743861212E-13, -4.616918432785521081E-15, 37.69999999999999574 ) ) ;
#119 = APPROVAL ( #14, 'UNSPECIFIED' ) ;
#120 = CARTESIAN_POINT ( 'NONE',  ( 0.0000000000000000000, 0.0000000000000000000, 0.0000000000000000000 ) ) ;
#121 = COORDINATED_UNIVERSAL_TIME_OFFSET ( 1, 0, .AHEAD. ) ;
#122 = CARTESIAN_POINT ( 'NONE',  ( 1.326762908760390423E-13, 1.199999999999994182, 38.00000000000000000 ) ) ;
#123 = APPLICATION_PROTOCOL_DEFINITION ( 'international standard', 'config_control_design', 1994, #113 ) ;
#124 = CARTESIAN_POINT ( 'NONE',  ( 1.500000000000016209, 0.0000000000000000000, 5.774778666149779305 ) ) ;
#125 = DATE_AND_TIME ( #158, #115 ) ;
#126 = ADVANCED_FACE ( 'NONE', ( #114, #23 ), #231, .T. ) ;
#127 = ORIENTED_EDGE ( 'NONE', *, *, #134, .F. ) ;
#128 = PRODUCT ( '63609', '63609', '', ( #35 ) ) ;
#129 = AXIS2_PLACEMENT_3D ( 'NONE', #81, #135, #212 ) ;
#130 = CARTESIAN_POINT ( 'NONE',  ( 3.491481338843108703E-16, 0.0000000000000000000, 0.09999999999999929778 ) ) ;
#131 = CYLINDRICAL_SURFACE ( 'NONE', #38, 1.499999999999996225 ) ;
#132 = AXIS2_PLACEMENT_3D ( 'NONE', #120, #197, #31 ) ;
#133 = CC_DESIGN_PERSON_AND_ORGANIZATION_ASSIGNMENT ( #222, #50, ( #128 ) ) ;
#134 = EDGE_CURVE ( 'NONE', #34, #34, #153, .T. ) ;
#135 = DIRECTION ( 'NONE',  ( 3.491481338843133355E-15, -0.0000000000000000000, 1.000000000000000000 ) ) ;
#136 = EDGE_LOOP ( 'NONE', ( #94 ) ) ;
#137 = APPROVAL_ROLE ( '' ) ;
#138 =( LENGTH_UNIT ( ) NAMED_UNIT ( * ) SI_UNIT ( .MILLI., .METRE. ) );
#139 = TOROIDAL_SURFACE ( 'NONE', #129, 2.050000000000000266, 2.000000000000000000 ) ;
#140 = AXIS2_PLACEMENT_3D ( 'NONE', #211, #24, #209 ) ;
#141 = CALENDAR_DATE ( 2021, 10, 11 ) ;
#142 = VERTEX_POINT ( 'NONE', #124 ) ;
#143 = DATE_AND_TIME ( #163, #145 ) ;
#144 = CARTESIAN_POINT ( 'NONE',  ( 1.326762908760390423E-13, -4.653657836759941941E-15, 38.00000000000000000 ) ) ;
#145 = LOCAL_TIME ( 7, 36, 13.00000000000000000, #202 ) ;
#146 = DATE_TIME_ROLE ( 'classification_date' ) ;
#147 = CLOSED_SHELL ( 'NONE', ( #62, #225, #51, #18, #126, #154 ) ) ;
#148 = EDGE_CURVE ( 'NONE', #142, #142, #170, .T. ) ;
#149 = ORIENTED_EDGE ( 'NONE', *, *, #85, .F. ) ;
#150 = DIRECTION ( 'NONE',  ( -3.491481338843133355E-15, 1.224646799147353207E-16, -1.000000000000000000 ) ) ;
#151 = FACE_OUTER_BOUND ( 'NONE', #37, .T. ) ;
#152 = PRODUCT_DEFINITION_FORMATION_WITH_SPECIFIED_SOURCE ( 'ANY', '', #128, .NOT_KNOWN. ) ;
#153 = CIRCLE ( 'NONE', #216, 0.05000000000000012768 ) ;
#154 = ADVANCED_FACE ( 'NONE', ( #53 ), #164, .F. ) ;
#155 = ORIENTED_EDGE ( 'NONE', *, *, #8, .T. ) ;
#156 = DIRECTION ( 'NONE',  ( -4.275831445896958607E-31, -1.000000000000000000, -1.224646799147353207E-16 ) ) ;
#157 = CLOSED_SHELL ( 'NONE', ( #1, #103, #178 ) ) ;
#158 = CALENDAR_DATE ( 2021, 10, 11 ) ;
#159 =( NAMED_UNIT ( * ) SI_UNIT ( $, .STERADIAN. ) SOLID_ANGLE_UNIT ( ) );
#160 = PERSON_AND_ORGANIZATION ( #180, #82 ) ;
#161 = CARTESIAN_POINT ( 'NONE',  ( 0.04999999999999991257, 0.0000000000000000000, -1.745740669421563719E-16 ) ) ;
#162 = AXIS2_PLACEMENT_3D ( 'NONE', #175, #15, #237 ) ;
#163 = CALENDAR_DATE ( 2021, 10, 11 ) ;
#164 = PLANE ( 'NONE',  #27 ) ;
#165 = SECURITY_CLASSIFICATION_LEVEL ( 'unclassified' ) ;
#166 = ORIENTED_EDGE ( 'NONE', *, *, #134, .T. ) ;
#167 = CARTESIAN_POINT ( 'NONE',  ( 0.0000000000000000000, 0.0000000000000000000, 0.0000000000000000000 ) ) ;
#168 = FACE_OUTER_BOUND ( 'NONE', #2, .T. ) ;
#169 = FACE_OUTER_BOUND ( 'NONE', #63, .T. ) ;
#170 = CIRCLE ( 'NONE', #188, 1.499999999999996225 ) ;
#171 = MANIFOLD_SOLID_BREP ( 'Corps-Déplacer/Copier1[2]', #157 ) ;
#172 = APPROVAL_PERSON_ORGANIZATION ( #241, #5, #107 ) ;
#173 = FACE_OUTER_BOUND ( 'NONE', #21, .T. ) ;
#174 = AXIS2_PLACEMENT_3D ( 'NONE', #45, #102, #156 ) ;
#175 = CARTESIAN_POINT ( 'NONE',  ( -6.413803915257457113E-31, 2.249659577954772199E-32, -1.836986451539393076E-16 ) ) ;
#176 = COORDINATED_UNIVERSAL_TIME_OFFSET ( 1, 0, .AHEAD. ) ;
#177 = APPLICATION_PROTOCOL_DEFINITION ( 'international standard', 'config_control_design', 1994, #25 ) ;
#178 = ADVANCED_FACE ( 'NONE', ( #173 ), #235, .F. ) ;
#179 = COORDINATED_UNIVERSAL_TIME_OFFSET ( 1, 0, .AHEAD. ) ;
#180 = PERSON ( 'UNSPECIFIED', 'UNSPECIFIED', 'UNSPECIFIED', ('UNSPECIFIED'), ('UNSPECIFIED'), ('UNSPECIFIED') ) ;
#181 = CARTESIAN_POINT ( 'NONE',  ( 3.491481338843125960E-16, -1.264902534566423124E-17, 0.09999999999999978351 ) ) ;
#182 = MANIFOLD_SOLID_BREP ( 'Corps-Déplacer/Copier1[1]', #147 ) ;
#183 = PERSON_AND_ORGANIZATION ( #180, #82 ) ;
#184 = VERTEX_POINT ( 'NONE', #161 ) ;
#185 = PRODUCT_RELATED_PRODUCT_CATEGORY ( 'detail', '', ( #128 ) ) ;
#186 = DESIGN_CONTEXT ( 'detailed design', #113, 'design' ) ;
#187 = LOCAL_TIME ( 7, 36, 13.00000000000000000, #179 ) ;
#188 = AXIS2_PLACEMENT_3D ( 'NONE', #112, #191, #22 ) ;
#189 = ORIENTED_EDGE ( 'NONE', *, *, #199, .T. ) ;
#190 = ORIENTED_EDGE ( 'NONE', *, *, #194, .F. ) ;
#191 = DIRECTION ( 'NONE',  ( 3.491481338843133355E-15, -0.0000000000000000000, 1.000000000000000000 ) ) ;
#192 = CONICAL_SURFACE ( 'NONE', #46, 1.199999999999998845, 0.7853981633974450594 ) ;
#193 = CARTESIAN_POINT ( 'NONE',  ( 2.016253194881141018E-14, 0.0000000000000000000, 5.774778666149783746 ) ) ;
#194 = EDGE_CURVE ( 'NONE', #11, #11, #206, .T. ) ;
#195 = ORIENTED_EDGE ( 'NONE', *, *, #199, .F. ) ;
#196 = APPROVAL_PERSON_ORGANIZATION ( #109, #119, #137 ) ;
#197 = DIRECTION ( 'NONE',  ( 0.0000000000000000000, 0.0000000000000000000, 1.000000000000000000 ) ) ;
#198 = AXIS2_PLACEMENT_3D ( 'NONE', #3, #229, #59 ) ;
#199 = EDGE_CURVE ( 'NONE', #203, #203, #58, .T. ) ;
#200 = PERSON_AND_ORGANIZATION_ROLE ( 'creator' ) ;
#201 = CARTESIAN_POINT ( 'NONE',  ( 1.316288464743861212E-13, 1.499999999999994005, 37.69999999999999574 ) ) ;
#202 = COORDINATED_UNIVERSAL_TIME_OFFSET ( 1, 0, .AHEAD. ) ;
#203 = VERTEX_POINT ( 'NONE', #91 ) ;
#204 = PERSON_AND_ORGANIZATION ( #180, #82 ) ;
#205 = EDGE_LOOP ( 'NONE', ( #127 ) ) ;
#206 = CIRCLE ( 'NONE', #238, 1.199999999999998845 ) ;
#207 = EDGE_LOOP ( 'NONE', ( #97 ) ) ;
#208 = DIRECTION ( 'NONE',  ( 3.491481338843133355E-15, -0.0000000000000000000, 1.000000000000000000 ) ) ;
#209 = DIRECTION ( 'NONE',  ( 4.275831445896958607E-31, 1.000000000000000000, 1.224646799147353207E-16 ) ) ;
#210 = CC_DESIGN_SECURITY_CLASSIFICATION ( #93, ( #152 ) ) ;
#211 = CARTESIAN_POINT ( 'NONE',  ( 1.326762908760390423E-13, 8.998558695971069014E-33, 38.00000000000000000 ) ) ;
#212 = DIRECTION ( 'NONE',  ( 1.000000000000000000, 0.0000000000000000000, -3.491481338843133750E-15 ) ) ;
#213 = PLANE ( 'NONE',  #140 ) ;
#214 = ADVANCED_BREP_SHAPE_REPRESENTATION ( '63609', ( #182, #171, #132 ), #42 ) ;
#215 =( NAMED_UNIT ( * ) PLANE_ANGLE_UNIT ( ) SI_UNIT ( $, .RADIAN. ) );
#216 = AXIS2_PLACEMENT_3D ( 'NONE', #130, #208, #40 ) ;
#217 = APPROVAL_DATE_TIME ( #36, #77 ) ;
#218 = VERTEX_POINT ( 'NONE', #201 ) ;
#219 = DATE_TIME_ROLE ( 'creation_date' ) ;
#220 = VERTEX_POINT ( 'NONE', #49 ) ;
#221 = LOCAL_TIME ( 7, 36, 13.00000000000000000, #176 ) ;
#222 = PERSON_AND_ORGANIZATION ( #180, #82 ) ;
#223 = UNCERTAINTY_MEASURE_WITH_UNIT (LENGTH_MEASURE( 1.000000000000000082E-05 ), #138, 'distance_accuracy_value', 'NONE');
#224 = EDGE_LOOP ( 'NONE', ( #96 ) ) ;
#225 = ADVANCED_FACE ( 'NONE', ( #87, #89 ), #192, .T. ) ;
#226 = ORIENTED_EDGE ( 'NONE', *, *, #194, .T. ) ;
#227 = PRODUCT_DEFINITION_SHAPE ( 'NONE', 'NONE',  #74 ) ;
#228 = FACE_OUTER_BOUND ( 'NONE', #136, .T. ) ;
#229 = DIRECTION ( 'NONE',  ( 3.491481338843133355E-15, -0.0000000000000000000, 1.000000000000000000 ) ) ;
#230 = CC_DESIGN_DATE_AND_TIME_ASSIGNMENT ( #125, #219, ( #74 ) ) ;
#231 = CONICAL_SURFACE ( 'NONE', #6, 1.499999999999996225, 0.2617993877991428020 ) ;
#232 = DIRECTION ( 'NONE',  ( 0.0000000000000000000, 1.000000000000000000, 0.0000000000000000000 ) ) ;
#233 = DIRECTION ( 'NONE',  ( -3.491481338843133355E-15, 1.224646799147353207E-16, -1.000000000000000000 ) ) ;
#234 = CC_DESIGN_PERSON_AND_ORGANIZATION_ASSIGNMENT ( #183, #200, ( #74 ) ) ;
#235 = PLANE ( 'NONE',  #162 ) ;
#236 = APPROVAL_ROLE ( '' ) ;
#237 = DIRECTION ( 'NONE',  ( -4.275831445896958607E-31, -1.000000000000000000, -1.224646799147353207E-16 ) ) ;
#238 = AXIS2_PLACEMENT_3D ( 'NONE', #144, #70, #13 ) ;
#239 = APPROVAL_DATE_TIME ( #143, #5 ) ;
#240 = CARTESIAN_POINT ( 'NONE',  ( 1.326762908760390423E-13, -4.653657836759941941E-15, 38.00000000000000000 ) ) ;
#241 = PERSON_AND_ORGANIZATION ( #180, #82 ) ;
#242 = PERSON_AND_ORGANIZATION_ROLE ( 'classification_officer' ) ;
#243 = ORIENTED_EDGE ( 'NONE', *, *, #8, .F. ) ;
ENDSEC;
END-ISO-10303-21;
