ISO-10303-21;
HEADER;
FILE_DESCRIPTION (( 'STEP AP203' ),
    '1' );
FILE_NAME ('63604.step',
    '2023-02-16T09:47:34',
    ( '' ),
    ( '' ),
    'SwSTEP 2.0',
    'SolidWorks 2019',
    '' );
FILE_SCHEMA (( 'CONFIG_CONTROL_DESIGN' ));
ENDSEC;

DATA;
#1 = VERTEX_POINT ( 'NONE', #47 ) ;
#2 = AXIS2_PLACEMENT_3D ( 'NONE', #102, #80, #146 ) ;
#3 = DIRECTION ( 'NONE',  ( -1.000000000000000000, -1.224646799147353207E-16, 0.000000000000000000 ) ) ;
#4 = DIRECTION ( 'NONE',  ( 1.000000000000000000, 1.224646799147353207E-16, -0.000000000000000000 ) ) ;
#5 = EDGE_CURVE ( 'NONE', #113, #113, #59, .T. ) ;
#6 = AXIS2_PLACEMENT_3D ( 'NONE', #78, #140, #57 ) ;
#7 = CC_DESIGN_SECURITY_CLASSIFICATION ( #103, ( #67 ) ) ;
#8 = DIRECTION ( 'NONE',  ( -1.224646799147353207E-16, 1.000000000000000000, 0.000000000000000000 ) ) ;
#9 = COORDINATED_UNIVERSAL_TIME_OFFSET ( 1, 0, .AHEAD. ) ;
#10 = COORDINATED_UNIVERSAL_TIME_OFFSET ( 1, 0, .AHEAD. ) ;
#11 = PERSON_AND_ORGANIZATION ( #120, #87 ) ;
#12 = CALENDAR_DATE ( 2023, 16, 2 ) ;
#13 = APPROVAL ( #167, 'UNSPECIFIED' ) ;
#14 = AXIS2_PLACEMENT_3D ( 'NONE', #159, #112, #192 ) ;
#15 = LOCAL_TIME ( 10, 47, 34.00000000000000000, #9 ) ;
#16 = EDGE_LOOP ( 'NONE', ( #18 ) ) ;
#17 = CC_DESIGN_APPROVAL ( #40, ( #181 ) ) ;
#18 = ORIENTED_EDGE ( 'NONE', *, *, #189, .T. ) ;
#19 = EDGE_LOOP ( 'NONE', ( #97 ) ) ;
#20 = PRODUCT_RELATED_PRODUCT_CATEGORY ( 'detail', '', ( #150 ) ) ;
#21 = FACE_BOUND ( 'NONE', #169, .T. ) ;
#22 = PLANE ( 'NONE',  #133 ) ;
#23 = DIRECTION ( 'NONE',  ( 1.000000000000000000, 1.224646799147353207E-16, -0.000000000000000000 ) ) ;
#24 = CYLINDRICAL_SURFACE ( 'NONE', #14, 4.999999999999998224 ) ;
#25 = DIRECTION ( 'NONE',  ( -1.000000000000000000, -1.224646799147353207E-16, 0.000000000000000000 ) ) ;
#26 = PERSON_AND_ORGANIZATION_ROLE ( 'design_supplier' ) ;
#27 = CARTESIAN_POINT ( 'NONE',  ( 0.000000000000000000, 0.000000000000000000, 0.000000000000000000 ) ) ;
#28 = DIRECTION ( 'NONE',  ( 0.000000000000000000, 0.000000000000000000, 1.000000000000000000 ) ) ;
#29 = APPROVAL_DATE_TIME ( #165, #40 ) ;
#30 = ADVANCED_BREP_SHAPE_REPRESENTATION ( '63604', ( #41, #111, #170 ), #81 ) ;
#31 = ORIENTED_EDGE ( 'NONE', *, *, #5, .F. ) ;
#32 = AXIS2_PLACEMENT_3D ( 'NONE', #99, #52, #48 ) ;
#33 = EDGE_LOOP ( 'NONE', ( #31 ) ) ;
#34 = DIRECTION ( 'NONE',  ( -1.224646799147353207E-16, 1.000000000000000000, 0.000000000000000000 ) ) ;
#35 = FACE_OUTER_BOUND ( 'NONE', #33, .T. ) ;
#36 = PRODUCT_DEFINITION_SHAPE ( 'NONE', 'NONE',  #181 ) ;
#37 = CARTESIAN_POINT ( 'NONE',  ( 0.000000000000000000, 0.5000000000000000000, 0.000000000000000000 ) ) ;
#38 = PERSON_AND_ORGANIZATION ( #120, #87 ) ;
#39 = CALENDAR_DATE ( 2023, 16, 2 ) ;
#40 = APPROVAL ( #153, 'UNSPECIFIED' ) ;
#41 = MANIFOLD_SOLID_BREP ( 'Révolution1', #72 ) ;
#42 = AXIS2_PLACEMENT_3D ( 'NONE', #175, #25, #144 ) ;
#43 = PLANE ( 'NONE',  #172 ) ;
#44 = EDGE_LOOP ( 'NONE', ( #110 ) ) ;
#45 = CC_DESIGN_PERSON_AND_ORGANIZATION_ASSIGNMENT ( #194, #26, ( #67 ) ) ;
#46 = CIRCLE ( 'NONE', #109, 5.000000000000001776 ) ;
#47 = CARTESIAN_POINT ( 'NONE',  ( -4.499999999999977796, 4.999999999999993783, 0.000000000000000000 ) ) ;
#48 = DIRECTION ( 'NONE',  ( -1.224646799147353207E-16, 1.000000000000000000, 0.000000000000000000 ) ) ;
#49 = CC_DESIGN_PERSON_AND_ORGANIZATION_ASSIGNMENT ( #134, #105, ( #67 ) ) ;
#50 = FACE_OUTER_BOUND ( 'NONE', #173, .T. ) ;
#51 = CARTESIAN_POINT ( 'NONE',  ( -71.00000000000000000, 4.999999999999992895, 0.000000000000000000 ) ) ;
#52 = DIRECTION ( 'NONE',  ( 1.000000000000000000, 1.224646799147353207E-16, -0.000000000000000000 ) ) ;
#53 = DATE_AND_TIME ( #166, #15 ) ;
#54 = CC_DESIGN_DATE_AND_TIME_ASSIGNMENT ( #53, #71, ( #103 ) ) ;
#55 = PERSON_AND_ORGANIZATION ( #120, #87 ) ;
#56 = COORDINATED_UNIVERSAL_TIME_OFFSET ( 1, 0, .AHEAD. ) ;
#57 = DIRECTION ( 'NONE',  ( 1.224646799147353207E-16, -1.000000000000000000, 0.000000000000000000 ) ) ;
#58 = VERTEX_POINT ( 'NONE', #37 ) ;
#59 = CIRCLE ( 'NONE', #98, 4.000000000000001776 ) ;
#60 = LOCAL_TIME ( 10, 47, 34.00000000000000000, #70 ) ;
#61 = CARTESIAN_POINT ( 'NONE',  ( -72.00000000000000000, 3.999999999999993339, 0.000000000000000000 ) ) ;
#62 =( LENGTH_UNIT ( ) NAMED_UNIT ( * ) SI_UNIT ( .MILLI., .METRE. ) );
#63 = CARTESIAN_POINT ( 'NONE',  ( -4.499999999999977796, -7.806255641895599384E-16, 0.000000000000000000 ) ) ;
#64 = APPROVAL ( #121, 'UNSPECIFIED' ) ;
#65 = APPROVAL_ROLE ( '' ) ;
#66 = MECHANICAL_CONTEXT ( 'NONE', #188, 'mechanical' ) ;
#67 = PRODUCT_DEFINITION_FORMATION_WITH_SPECIFIED_SOURCE ( 'ANY', '', #150, .NOT_KNOWN. ) ;
#68 = APPROVAL_DATE_TIME ( #88, #13 ) ;
#69 = ADVANCED_FACE ( 'NONE', ( #143 ), #142, .T. ) ;
#70 = COORDINATED_UNIVERSAL_TIME_OFFSET ( 1, 0, .AHEAD. ) ;
#71 = DATE_TIME_ROLE ( 'classification_date' ) ;
#72 = CLOSED_SHELL ( 'NONE', ( #197, #115, #123, #152 ) ) ;
#73 = LOCAL_TIME ( 10, 47, 34.00000000000000000, #137 ) ;
#74 = ORIENTED_EDGE ( 'NONE', *, *, #5, .T. ) ;
#75 = ORIENTED_EDGE ( 'NONE', *, *, #189, .F. ) ;
#76 = CONICAL_SURFACE ( 'NONE', #42, 0.5000000000000000000, 0.7853981633974503884 ) ;
#77 = EDGE_LOOP ( 'NONE', ( #74 ) ) ;
#78 = CARTESIAN_POINT ( 'NONE',  ( -4.499999999999977796, -7.806255641895599384E-16, 0.000000000000000000 ) ) ;
#79 = DIRECTION ( 'NONE',  ( 0.000000000000000000, 1.000000000000000000, 0.000000000000000000 ) ) ;
#80 = DIRECTION ( 'NONE',  ( 1.000000000000000000, 1.224646799147353207E-16, -0.000000000000000000 ) ) ;
#81 =( GEOMETRIC_REPRESENTATION_CONTEXT ( 3 ) GLOBAL_UNCERTAINTY_ASSIGNED_CONTEXT ( ( #108 ) ) GLOBAL_UNIT_ASSIGNED_CONTEXT ( ( #62, #148, #127 ) ) REPRESENTATION_CONTEXT ( 'NONE', 'WORKASPACE' ) );
#82 = DIRECTION ( 'NONE',  ( -1.734723475976809067E-16, 1.000000000000000000, 0.000000000000000000 ) ) ;
#83 = DIRECTION ( 'NONE',  ( 1.000000000000000000, 1.224646799147353207E-16, -0.000000000000000000 ) ) ;
#84 = CARTESIAN_POINT ( 'NONE',  ( -71.00000000000000000, -8.694992273946206563E-15, 0.000000000000000000 ) ) ;
#85 = CIRCLE ( 'NONE', #201, 4.999999999999994671 ) ;
#86 = ADVANCED_FACE ( 'NONE', ( #124 ), #43, .T. ) ;
#87 = ORGANIZATION ( 'UNSPECIFIED', 'UNSPECIFIED', '' ) ;
#88 = DATE_AND_TIME ( #182, #129 ) ;
#89 = SECURITY_CLASSIFICATION_LEVEL ( 'unclassified' ) ;
#90 = CC_DESIGN_DATE_AND_TIME_ASSIGNMENT ( #200, #180, ( #181 ) ) ;
#91 = PERSON_AND_ORGANIZATION_ROLE ( 'design_owner' ) ;
#92 = DATE_AND_TIME ( #39, #138 ) ;
#93 = EDGE_CURVE ( 'NONE', #145, #145, #85, .T. ) ;
#94 = AXIS2_PLACEMENT_3D ( 'NONE', #193, #23, #34 ) ;
#95 = CIRCLE ( 'NONE', #2, 4.999999999999994671 ) ;
#96 = EDGE_LOOP ( 'NONE', ( #141 ) ) ;
#97 = ORIENTED_EDGE ( 'NONE', *, *, #164, .T. ) ;
#98 = AXIS2_PLACEMENT_3D ( 'NONE', #158, #154, #79 ) ;
#99 = CARTESIAN_POINT ( 'NONE',  ( 6.123233995736766036E-17, 7.498798913309288039E-33, 0.000000000000000000 ) ) ;
#100 = PLANE ( 'NONE',  #94 ) ;
#101 = DIRECTION ( 'NONE',  ( 1.000000000000000000, 1.224646799147353207E-16, -0.000000000000000000 ) ) ;
#102 = CARTESIAN_POINT ( 'NONE',  ( -4.499999999999976907, -5.510910596163061945E-16, 0.000000000000000000 ) ) ;
#103 = SECURITY_CLASSIFICATION ( '', '', #89 ) ;
#104 = APPROVAL_ROLE ( '' ) ;
#105 = PERSON_AND_ORGANIZATION_ROLE ( 'creator' ) ;
#106 = APPLICATION_PROTOCOL_DEFINITION ( 'international standard', 'config_control_design', 1994, #139 ) ;
#107 = CC_DESIGN_PERSON_AND_ORGANIZATION_ASSIGNMENT ( #55, #91, ( #150 ) ) ;
#108 = UNCERTAINTY_MEASURE_WITH_UNIT (LENGTH_MEASURE( 1.000000000000000082E-05 ), #62, 'distance_accuracy_value', 'NONE');
#109 = AXIS2_PLACEMENT_3D ( 'NONE', #84, #83, #176 ) ;
#110 = ORIENTED_EDGE ( 'NONE', *, *, #164, .F. ) ;
#111 = MANIFOLD_SOLID_BREP ( 'Révolution2', #183 ) ;
#112 = DIRECTION ( 'NONE',  ( 1.000000000000000000, 1.224646799147353207E-16, -0.000000000000000000 ) ) ;
#113 = VERTEX_POINT ( 'NONE', #61 ) ;
#114 = FACE_OUTER_BOUND ( 'NONE', #96, .T. ) ;
#115 = ADVANCED_FACE ( 'NONE', ( #114, #128 ), #24, .T. ) ;
#116 = CARTESIAN_POINT ( 'NONE',  ( -72.00000000000000000, -8.817456953860941711E-15, 0.000000000000000000 ) ) ;
#117 = DIRECTION ( 'NONE',  ( 1.224646799147353207E-16, -1.000000000000000000, 0.000000000000000000 ) ) ;
#118 = APPROVAL_PERSON_ORGANIZATION ( #11, #40, #65 ) ;
#119 = DIRECTION ( 'NONE',  ( 1.000000000000000000, 0.000000000000000000, 0.000000000000000000 ) ) ;
#120 = PERSON ( 'UNSPECIFIED', 'UNSPECIFIED', 'UNSPECIFIED', ('UNSPECIFIED'), ('UNSPECIFIED'), ('UNSPECIFIED') ) ;
#121 = APPROVAL_STATUS ( 'not_yet_approved' ) ;
#122 = PERSON_AND_ORGANIZATION ( #120, #87 ) ;
#123 = ADVANCED_FACE ( 'NONE', ( #162, #174 ), #203, .T. ) ;
#124 = FACE_OUTER_BOUND ( 'NONE', #16, .T. ) ;
#125 = EDGE_LOOP ( 'NONE', ( #155 ) ) ;
#126 = CC_DESIGN_APPROVAL ( #13, ( #103 ) ) ;
#127 =( NAMED_UNIT ( * ) SI_UNIT ( $, .STERADIAN. ) SOLID_ANGLE_UNIT ( ) );
#128 = FACE_OUTER_BOUND ( 'NONE', #19, .T. ) ;
#129 = LOCAL_TIME ( 10, 47, 34.00000000000000000, #10 ) ;
#130 = DIRECTION ( 'NONE',  ( 0.000000000000000000, 1.000000000000000000, 0.000000000000000000 ) ) ;
#131 = PERSON_AND_ORGANIZATION_ROLE ( 'classification_officer' ) ;
#132 = PERSON_AND_ORGANIZATION ( #120, #87 ) ;
#133 = AXIS2_PLACEMENT_3D ( 'NONE', #63, #3, #117 ) ;
#134 = PERSON_AND_ORGANIZATION ( #120, #87 ) ;
#135 = APPROVAL_DATE_TIME ( #92, #64 ) ;
#136 = CC_DESIGN_PERSON_AND_ORGANIZATION_ASSIGNMENT ( #122, #131, ( #103 ) ) ;
#137 = COORDINATED_UNIVERSAL_TIME_OFFSET ( 1, 0, .AHEAD. ) ;
#138 = LOCAL_TIME ( 10, 47, 34.00000000000000000, #56 ) ;
#139 = APPLICATION_CONTEXT ( 'configuration controlled 3d designs of mechanical parts and assemblies' ) ;
#140 = DIRECTION ( 'NONE',  ( -1.000000000000000000, -1.224646799147353207E-16, 0.000000000000000000 ) ) ;
#141 = ORIENTED_EDGE ( 'NONE', *, *, #178, .F. ) ;
#142 = PLANE ( 'NONE',  #6 ) ;
#143 = FACE_OUTER_BOUND ( 'NONE', #125, .T. ) ;
#144 = DIRECTION ( 'NONE',  ( 1.224646799147353207E-16, -1.000000000000000000, 0.000000000000000000 ) ) ;
#145 = VERTEX_POINT ( 'NONE', #177 ) ;
#146 = DIRECTION ( 'NONE',  ( -1.734723475976809067E-16, 1.000000000000000000, 0.000000000000000000 ) ) ;
#147 = VERTEX_POINT ( 'NONE', #51 ) ;
#148 =( NAMED_UNIT ( * ) PLANE_ANGLE_UNIT ( ) SI_UNIT ( $, .RADIAN. ) );
#149 = APPROVAL_PERSON_ORGANIZATION ( #38, #64, #104 ) ;
#150 = PRODUCT ( '63604', '63604', '', ( #66 ) ) ;
#151 = APPROVAL_ROLE ( '' ) ;
#152 = ADVANCED_FACE ( 'NONE', ( #35 ), #100, .F. ) ;
#153 = APPROVAL_STATUS ( 'not_yet_approved' ) ;
#154 = DIRECTION ( 'NONE',  ( 1.000000000000000000, 1.224646799147353207E-16, -0.000000000000000000 ) ) ;
#155 = ORIENTED_EDGE ( 'NONE', *, *, #93, .F. ) ;
#156 = ORIENTED_EDGE ( 'NONE', *, *, #93, .T. ) ;
#157 = ADVANCED_FACE ( 'NONE', ( #50, #21 ), #76, .T. ) ;
#158 = CARTESIAN_POINT ( 'NONE',  ( -72.00000000000000000, -8.817456953860941711E-15, 0.000000000000000000 ) ) ;
#159 = CARTESIAN_POINT ( 'NONE',  ( 0.000000000000000000, 0.000000000000000000, 0.000000000000000000 ) ) ;
#160 = FACE_OUTER_BOUND ( 'NONE', #190, .T. ) ;
#161 = DIRECTION ( 'NONE',  ( 1.000000000000000000, 1.224646799147353207E-16, -0.000000000000000000 ) ) ;
#162 = FACE_OUTER_BOUND ( 'NONE', #44, .T. ) ;
#163 = CIRCLE ( 'NONE', #32, 0.5000000000000000000 ) ;
#164 = EDGE_CURVE ( 'NONE', #147, #147, #46, .T. ) ;
#165 = DATE_AND_TIME ( #179, #73 ) ;
#166 = CALENDAR_DATE ( 2023, 16, 2 ) ;
#167 = APPROVAL_STATUS ( 'not_yet_approved' ) ;
#168 = AXIS2_PLACEMENT_3D ( 'NONE', #116, #161, #130 ) ;
#169 = EDGE_LOOP ( 'NONE', ( #75 ) ) ;
#170 = AXIS2_PLACEMENT_3D ( 'NONE', #27, #28, #119 ) ;
#171 = CC_DESIGN_PERSON_AND_ORGANIZATION_ASSIGNMENT ( #132, #198, ( #181 ) ) ;
#172 = AXIS2_PLACEMENT_3D ( 'NONE', #187, #101, #8 ) ;
#173 = EDGE_LOOP ( 'NONE', ( #156 ) ) ;
#174 = FACE_BOUND ( 'NONE', #77, .T. ) ;
#175 = CARTESIAN_POINT ( 'NONE',  ( 6.123233995736766036E-17, 7.498798913309288039E-33, 0.000000000000000000 ) ) ;
#176 = DIRECTION ( 'NONE',  ( 0.000000000000000000, 1.000000000000000000, 0.000000000000000000 ) ) ;
#177 = CARTESIAN_POINT ( 'NONE',  ( -4.499999999999977796, 4.999999999999993783, 0.000000000000000000 ) ) ;
#178 = EDGE_CURVE ( 'NONE', #1, #1, #95, .T. ) ;
#179 = CALENDAR_DATE ( 2023, 16, 2 ) ;
#180 = DATE_TIME_ROLE ( 'creation_date' ) ;
#181 = PRODUCT_DEFINITION ( 'UNKNOWN', '', #67, #202 ) ;
#182 = CALENDAR_DATE ( 2023, 16, 2 ) ;
#183 = CLOSED_SHELL ( 'NONE', ( #86, #157, #69 ) ) ;
#184 = PERSON_AND_ORGANIZATION ( #120, #87 ) ;
#185 = ORIENTED_EDGE ( 'NONE', *, *, #178, .T. ) ;
#186 = CC_DESIGN_APPROVAL ( #64, ( #67 ) ) ;
#187 = CARTESIAN_POINT ( 'NONE',  ( 3.061616997868383018E-17, 3.749399456654644020E-33, 0.000000000000000000 ) ) ;
#188 = APPLICATION_CONTEXT ( 'configuration controlled 3d designs of mechanical parts and assemblies' ) ;
#189 = EDGE_CURVE ( 'NONE', #58, #58, #163, .T. ) ;
#190 = EDGE_LOOP ( 'NONE', ( #185 ) ) ;
#191 = CARTESIAN_POINT ( 'NONE',  ( -4.499999999999976907, -5.510910596163061945E-16, 0.000000000000000000 ) ) ;
#192 = DIRECTION ( 'NONE',  ( -1.224646799147353207E-16, 1.000000000000000000, 0.000000000000000000 ) ) ;
#193 = CARTESIAN_POINT ( 'NONE',  ( -72.00000000000000000, 2.999519565323704268E-32, 0.000000000000000000 ) ) ;
#194 = PERSON_AND_ORGANIZATION ( #120, #87 ) ;
#195 = APPLICATION_PROTOCOL_DEFINITION ( 'international standard', 'config_control_design', 1994, #188 ) ;
#196 = APPROVAL_PERSON_ORGANIZATION ( #184, #13, #151 ) ;
#197 = ADVANCED_FACE ( 'NONE', ( #160 ), #22, .F. ) ;
#198 = PERSON_AND_ORGANIZATION_ROLE ( 'creator' ) ;
#199 = SHAPE_DEFINITION_REPRESENTATION ( #36, #30 ) ;
#200 = DATE_AND_TIME ( #12, #60 ) ;
#201 = AXIS2_PLACEMENT_3D ( 'NONE', #191, #4, #82 ) ;
#202 = DESIGN_CONTEXT ( 'detailed design', #139, 'design' ) ;
#203 = CONICAL_SURFACE ( 'NONE', #168, 4.000000000000001776, 0.7853981633974479459 ) ;
ENDSEC;
END-ISO-10303-21;
