ISO-10303-21;
HEADER;
FILE_DESCRIPTION (( 'STEP AP203' ),
    '1' );
FILE_NAME ('63603.step',
    '2023-02-16T09:47:33',
    ( '' ),
    ( '' ),
    'SwSTEP 2.0',
    'SolidWorks 2019',
    '' );
FILE_SCHEMA (( 'CONFIG_CONTROL_DESIGN' ));
ENDSEC;

DATA;
#1 = EDGE_LOOP ( 'NONE', ( #18 ) ) ;
#2 = EDGE_LOOP ( 'NONE', ( #29 ) ) ;
#3 =( LENGTH_UNIT ( ) NAMED_UNIT ( * ) SI_UNIT ( .MILLI., .METRE. ) );
#4 = DIRECTION ( 'NONE',  ( 0.000000000000000000, 1.000000000000000000, 0.000000000000000000 ) ) ;
#5 = DIRECTION ( 'NONE',  ( 0.000000000000000000, 1.000000000000000000, 0.000000000000000000 ) ) ;
#6 = CALENDAR_DATE ( 2023, 16, 2 ) ;
#7 = CIRCLE ( 'NONE', #99, 2.999999999999992450 ) ;
#8 = LOCAL_TIME ( 10, 47, 33.00000000000000000, #9 ) ;
#9 = COORDINATED_UNIVERSAL_TIME_OFFSET ( 1, 0, .AHEAD. ) ;
#10 = PRODUCT ( '63603', '63603', '', ( #65 ) ) ;
#11 = PRODUCT_DEFINITION_SHAPE ( 'NONE', 'NONE',  #77 ) ;
#12 = AXIS2_PLACEMENT_3D ( 'NONE', #27, #30, #58 ) ;
#13 = DIRECTION ( 'NONE',  ( -1.000000000000000000, -1.224646799147353207E-16, 0.000000000000000000 ) ) ;
#14 = ADVANCED_FACE ( 'NONE', ( #134, #153 ), #93, .T. ) ;
#15 = DIRECTION ( 'NONE',  ( -1.224646799147353207E-16, 1.000000000000000000, 0.000000000000000000 ) ) ;
#16 = CC_DESIGN_APPROVAL ( #176, ( #125 ) ) ;
#17 = DIRECTION ( 'NONE',  ( 1.000000000000000000, 1.224646799147353207E-16, -0.000000000000000000 ) ) ;
#18 = ORIENTED_EDGE ( 'NONE', *, *, #185, .F. ) ;
#19 = CARTESIAN_POINT ( 'NONE',  ( -2.699999999999982858, 2.999999999999992006, 0.000000000000000000 ) ) ;
#20 = DATE_AND_TIME ( #6, #164 ) ;
#21 = CIRCLE ( 'NONE', #12, 2.999999999999992450 ) ;
#22 = DIRECTION ( 'NONE',  ( 1.000000000000000000, 1.224646799147353207E-16, -0.000000000000000000 ) ) ;
#23 = DATE_AND_TIME ( #70, #129 ) ;
#24 = CLOSED_SHELL ( 'NONE', ( #25, #14, #64 ) ) ;
#25 = ADVANCED_FACE ( 'NONE', ( #157 ), #201, .T. ) ;
#26 = CARTESIAN_POINT ( 'NONE',  ( 3.673940397442058882E-17, 4.499279347985572139E-33, 0.000000000000000000 ) ) ;
#27 = CARTESIAN_POINT ( 'NONE',  ( -2.699999999999982414, -3.306546357697832040E-16, 0.000000000000000000 ) ) ;
#28 = PLANE ( 'NONE',  #88 ) ;
#29 = ORIENTED_EDGE ( 'NONE', *, *, #86, .F. ) ;
#30 = DIRECTION ( 'NONE',  ( 1.000000000000000000, 1.224646799147353207E-16, -0.000000000000000000 ) ) ;
#31 = APPROVAL_STATUS ( 'not_yet_approved' ) ;
#32 = CC_DESIGN_SECURITY_CLASSIFICATION ( #152, ( #125 ) ) ;
#33 = PERSON_AND_ORGANIZATION_ROLE ( 'creator' ) ;
#34 = FACE_OUTER_BOUND ( 'NONE', #104, .T. ) ;
#35 = CC_DESIGN_DATE_AND_TIME_ASSIGNMENT ( #36, #195, ( #77 ) ) ;
#36 = DATE_AND_TIME ( #177, #8 ) ;
#37 = AXIS2_PLACEMENT_3D ( 'NONE', #138, #59, #126 ) ;
#38 = APPROVAL_STATUS ( 'not_yet_approved' ) ;
#39 = APPROVAL_DATE_TIME ( #23, #176 ) ;
#40 = COORDINATED_UNIVERSAL_TIME_OFFSET ( 1, 0, .AHEAD. ) ;
#41 = ORIENTED_EDGE ( 'NONE', *, *, #161, .F. ) ;
#42 = CARTESIAN_POINT ( 'NONE',  ( -2.699999999999982858, -3.903127820947801664E-16, 0.000000000000000000 ) ) ;
#43 = DIRECTION ( 'NONE',  ( 0.000000000000000000, 1.000000000000000000, 0.000000000000000000 ) ) ;
#44 = EDGE_CURVE ( 'NONE', #146, #146, #7, .T. ) ;
#45 = CARTESIAN_POINT ( 'NONE',  ( -57.00000000000000000, 2.399999999999991918, 0.000000000000000000 ) ) ;
#46 =( NAMED_UNIT ( * ) PLANE_ANGLE_UNIT ( ) SI_UNIT ( $, .RADIAN. ) );
#47 = PERSON_AND_ORGANIZATION ( #145, #199 ) ;
#48 = AXIS2_PLACEMENT_3D ( 'NONE', #173, #80, #97 ) ;
#49 = DIRECTION ( 'NONE',  ( 1.000000000000000000, 1.224646799147353207E-16, -0.000000000000000000 ) ) ;
#50 = DATE_AND_TIME ( #192, #141 ) ;
#51 = DATE_TIME_ROLE ( 'classification_date' ) ;
#52 = AXIS2_PLACEMENT_3D ( 'NONE', #120, #96, #43 ) ;
#53 = CC_DESIGN_PERSON_AND_ORGANIZATION_ASSIGNMENT ( #178, #132, ( #125 ) ) ;
#54 = EDGE_LOOP ( 'NONE', ( #136 ) ) ;
#55 = FACE_OUTER_BOUND ( 'NONE', #166, .T. ) ;
#56 = CC_DESIGN_PERSON_AND_ORGANIZATION_ASSIGNMENT ( #115, #197, ( #152 ) ) ;
#57 = CC_DESIGN_APPROVAL ( #151, ( #152 ) ) ;
#58 = DIRECTION ( 'NONE',  ( -1.445602896647342861E-16, 1.000000000000000000, 0.000000000000000000 ) ) ;
#59 = DIRECTION ( 'NONE',  ( 1.000000000000000000, 1.224646799147353207E-16, -0.000000000000000000 ) ) ;
#60 = ORIENTED_EDGE ( 'NONE', *, *, #161, .T. ) ;
#61 = ADVANCED_FACE ( 'NONE', ( #55 ), #90, .F. ) ;
#62 = CYLINDRICAL_SURFACE ( 'NONE', #66, 2.999999999999995115 ) ;
#63 = DIRECTION ( 'NONE',  ( 1.000000000000000000, 1.224646799147353207E-16, -0.000000000000000000 ) ) ;
#64 = ADVANCED_FACE ( 'NONE', ( #118 ), #107, .T. ) ;
#65 = MECHANICAL_CONTEXT ( 'NONE', #109, 'mechanical' ) ;
#66 = AXIS2_PLACEMENT_3D ( 'NONE', #190, #22, #81 ) ;
#67 = PERSON_AND_ORGANIZATION ( #145, #199 ) ;
#68 = APPROVAL_ROLE ( '' ) ;
#69 = SECURITY_CLASSIFICATION_LEVEL ( 'unclassified' ) ;
#70 = CALENDAR_DATE ( 2023, 16, 2 ) ;
#71 = APPROVAL_ROLE ( '' ) ;
#72 = EDGE_LOOP ( 'NONE', ( #106 ) ) ;
#73 = APPROVAL_PERSON_ORGANIZATION ( #130, #151, #68 ) ;
#74 = EDGE_LOOP ( 'NONE', ( #165 ) ) ;
#75 = DIRECTION ( 'NONE',  ( -1.000000000000000000, -1.224646799147353207E-16, 0.000000000000000000 ) ) ;
#76 = DIRECTION ( 'NONE',  ( 1.224646799147352961E-16, -1.000000000000000000, 0.000000000000000000 ) ) ;
#77 = PRODUCT_DEFINITION ( 'UNKNOWN', '', #125, #87 ) ;
#78 = VERTEX_POINT ( 'NONE', #142 ) ;
#79 = CIRCLE ( 'NONE', #37, 0.2999999999999999889 ) ;
#80 = DIRECTION ( 'NONE',  ( 0.000000000000000000, 0.000000000000000000, 1.000000000000000000 ) ) ;
#81 = DIRECTION ( 'NONE',  ( -1.224646799147353207E-16, 1.000000000000000000, 0.000000000000000000 ) ) ;
#82 = MANIFOLD_SOLID_BREP ( 'Révolution1', #84 ) ;
#83 = CARTESIAN_POINT ( 'NONE',  ( -57.00000000000000000, -6.980486755139912911E-15, 0.000000000000000000 ) ) ;
#84 = CLOSED_SHELL ( 'NONE', ( #61, #172, #100, #124 ) ) ;
#85 = CIRCLE ( 'NONE', #189, 2.399999999999999023 ) ;
#86 = EDGE_CURVE ( 'NONE', #108, #108, #21, .T. ) ;
#87 = DESIGN_CONTEXT ( 'detailed design', #89, 'design' ) ;
#88 = AXIS2_PLACEMENT_3D ( 'NONE', #92, #117, #15 ) ;
#89 = APPLICATION_CONTEXT ( 'configuration controlled 3d designs of mechanical parts and assemblies' ) ;
#90 = PLANE ( 'NONE',  #169 ) ;
#91 = APPROVAL ( #31, 'UNSPECIFIED' ) ;
#92 = CARTESIAN_POINT ( 'NONE',  ( -57.00000000000000000, 1.799711739194217908E-32, 0.000000000000000000 ) ) ;
#93 = CONICAL_SURFACE ( 'NONE', #186, 0.2999999999999999889, 0.7853981633974501664 ) ;
#94 = CC_DESIGN_APPROVAL ( #91, ( #77 ) ) ;
#95 = ORIENTED_EDGE ( 'NONE', *, *, #185, .T. ) ;
#96 = DIRECTION ( 'NONE',  ( 1.000000000000000000, 1.224646799147353207E-16, -0.000000000000000000 ) ) ;
#97 = DIRECTION ( 'NONE',  ( 1.000000000000000000, 0.000000000000000000, 0.000000000000000000 ) ) ;
#98 = CARTESIAN_POINT ( 'NONE',  ( -56.39999999999999147, -6.907007947191071191E-15, 0.000000000000000000 ) ) ;
#99 = AXIS2_PLACEMENT_3D ( 'NONE', #156, #121, #181 ) ;
#100 = ADVANCED_FACE ( 'NONE', ( #154, #203 ), #170, .T. ) ;
#101 = DATE_AND_TIME ( #196, #114 ) ;
#102 = SHAPE_DEFINITION_REPRESENTATION ( #11, #135 ) ;
#103 = ORIENTED_EDGE ( 'NONE', *, *, #86, .T. ) ;
#104 = EDGE_LOOP ( 'NONE', ( #95 ) ) ;
#105 = DIRECTION ( 'NONE',  ( 1.224646799147353207E-16, -1.000000000000000000, 0.000000000000000000 ) ) ;
#106 = ORIENTED_EDGE ( 'NONE', *, *, #133, .T. ) ;
#107 = PLANE ( 'NONE',  #198 ) ;
#108 = VERTEX_POINT ( 'NONE', #19 ) ;
#109 = APPLICATION_CONTEXT ( 'configuration controlled 3d designs of mechanical parts and assemblies' ) ;
#110 = COORDINATED_UNIVERSAL_TIME_OFFSET ( 1, 0, .AHEAD. ) ;
#111 = PERSON_AND_ORGANIZATION ( #145, #199 ) ;
#112 = PERSON_AND_ORGANIZATION ( #145, #199 ) ;
#113 = PRODUCT_RELATED_PRODUCT_CATEGORY ( 'detail', '', ( #10 ) ) ;
#114 = LOCAL_TIME ( 10, 47, 33.00000000000000000, #40 ) ;
#115 = PERSON_AND_ORGANIZATION ( #145, #199 ) ;
#116 = APPROVAL_STATUS ( 'not_yet_approved' ) ;
#117 = DIRECTION ( 'NONE',  ( 1.000000000000000000, 1.224646799147353207E-16, -0.000000000000000000 ) ) ;
#118 = FACE_OUTER_BOUND ( 'NONE', #54, .T. ) ;
#119 = APPROVAL_PERSON_ORGANIZATION ( #67, #176, #71 ) ;
#120 = CARTESIAN_POINT ( 'NONE',  ( -57.00000000000000000, -6.980486755139912911E-15, 0.000000000000000000 ) ) ;
#121 = DIRECTION ( 'NONE',  ( 1.000000000000000000, 1.224646799147353207E-16, -0.000000000000000000 ) ) ;
#122 = EDGE_LOOP ( 'NONE', ( #60 ) ) ;
#123 = VERTEX_POINT ( 'NONE', #45 ) ;
#124 = ADVANCED_FACE ( 'NONE', ( #200 ), #28, .F. ) ;
#125 = PRODUCT_DEFINITION_FORMATION_WITH_SPECIFIED_SOURCE ( 'ANY', '', #10, .NOT_KNOWN. ) ;
#126 = DIRECTION ( 'NONE',  ( -1.224646799147352961E-16, 1.000000000000000000, 0.000000000000000000 ) ) ;
#127 = CC_DESIGN_DATE_AND_TIME_ASSIGNMENT ( #50, #51, ( #152 ) ) ;
#128 = PERSON_AND_ORGANIZATION_ROLE ( 'creator' ) ;
#129 = LOCAL_TIME ( 10, 47, 33.00000000000000000, #179 ) ;
#130 = PERSON_AND_ORGANIZATION ( #145, #199 ) ;
#131 = PERSON_AND_ORGANIZATION ( #145, #199 ) ;
#132 = PERSON_AND_ORGANIZATION_ROLE ( 'design_supplier' ) ;
#133 = EDGE_CURVE ( 'NONE', #143, #143, #79, .T. ) ;
#134 = FACE_OUTER_BOUND ( 'NONE', #74, .T. ) ;
#135 = ADVANCED_BREP_SHAPE_REPRESENTATION ( '63603', ( #82, #150, #48 ), #147 ) ;
#136 = ORIENTED_EDGE ( 'NONE', *, *, #44, .F. ) ;
#137 = AXIS2_PLACEMENT_3D ( 'NONE', #98, #49, #5 ) ;
#138 = CARTESIAN_POINT ( 'NONE',  ( 3.673940397442058882E-17, 4.499279347985572139E-33, 0.000000000000000000 ) ) ;
#139 = CARTESIAN_POINT ( 'NONE',  ( -2.699999999999982858, -3.903127820947801664E-16, 0.000000000000000000 ) ) ;
#140 = CARTESIAN_POINT ( 'NONE',  ( -2.699999999999982858, 2.999999999999992006, 0.000000000000000000 ) ) ;
#141 = LOCAL_TIME ( 10, 47, 33.00000000000000000, #163 ) ;
#142 = CARTESIAN_POINT ( 'NONE',  ( -56.39999999999999147, 2.999999999999991562, 0.000000000000000000 ) ) ;
#143 = VERTEX_POINT ( 'NONE', #144 ) ;
#144 = CARTESIAN_POINT ( 'NONE',  ( 0.000000000000000000, 0.2999999999999999889, 0.000000000000000000 ) ) ;
#145 = PERSON ( 'UNSPECIFIED', 'UNSPECIFIED', 'UNSPECIFIED', ('UNSPECIFIED'), ('UNSPECIFIED'), ('UNSPECIFIED') ) ;
#146 = VERTEX_POINT ( 'NONE', #140 ) ;
#147 =( GEOMETRIC_REPRESENTATION_CONTEXT ( 3 ) GLOBAL_UNCERTAINTY_ASSIGNED_CONTEXT ( ( #149 ) ) GLOBAL_UNIT_ASSIGNED_CONTEXT ( ( #3, #46, #191 ) ) REPRESENTATION_CONTEXT ( 'NONE', 'WORKASPACE' ) );
#148 = APPROVAL_DATE_TIME ( #101, #151 ) ;
#149 = UNCERTAINTY_MEASURE_WITH_UNIT (LENGTH_MEASURE( 1.000000000000000082E-05 ), #3, 'distance_accuracy_value', 'NONE');
#150 = MANIFOLD_SOLID_BREP ( 'Révolution2', #24 ) ;
#151 = APPROVAL ( #116, 'UNSPECIFIED' ) ;
#152 = SECURITY_CLASSIFICATION ( '', '', #69 ) ;
#153 = FACE_BOUND ( 'NONE', #167, .T. ) ;
#154 = FACE_OUTER_BOUND ( 'NONE', #1, .T. ) ;
#155 = CC_DESIGN_PERSON_AND_ORGANIZATION_ASSIGNMENT ( #112, #187, ( #10 ) ) ;
#156 = CARTESIAN_POINT ( 'NONE',  ( -2.699999999999982414, -3.306546357697832040E-16, 0.000000000000000000 ) ) ;
#157 = FACE_OUTER_BOUND ( 'NONE', #72, .T. ) ;
#158 = DIRECTION ( 'NONE',  ( -1.000000000000000000, -1.224646799147353207E-16, 0.000000000000000000 ) ) ;
#159 = APPLICATION_PROTOCOL_DEFINITION ( 'international standard', 'config_control_design', 1994, #89 ) ;
#160 = APPLICATION_PROTOCOL_DEFINITION ( 'international standard', 'config_control_design', 1994, #109 ) ;
#161 = EDGE_CURVE ( 'NONE', #123, #123, #85, .T. ) ;
#162 = FACE_OUTER_BOUND ( 'NONE', #2, .T. ) ;
#163 = COORDINATED_UNIVERSAL_TIME_OFFSET ( 1, 0, .AHEAD. ) ;
#164 = LOCAL_TIME ( 10, 47, 33.00000000000000000, #110 ) ;
#165 = ORIENTED_EDGE ( 'NONE', *, *, #44, .T. ) ;
#166 = EDGE_LOOP ( 'NONE', ( #103 ) ) ;
#167 = EDGE_LOOP ( 'NONE', ( #182 ) ) ;
#168 = EDGE_LOOP ( 'NONE', ( #41 ) ) ;
#169 = AXIS2_PLACEMENT_3D ( 'NONE', #139, #75, #105 ) ;
#170 = CONICAL_SURFACE ( 'NONE', #52, 2.399999999999999023, 0.7853981633974392862 ) ;
#171 = DIRECTION ( 'NONE',  ( 1.224646799147353207E-16, -1.000000000000000000, 0.000000000000000000 ) ) ;
#172 = ADVANCED_FACE ( 'NONE', ( #162, #34 ), #62, .T. ) ;
#173 = CARTESIAN_POINT ( 'NONE',  ( 0.000000000000000000, 0.000000000000000000, 0.000000000000000000 ) ) ;
#174 = CIRCLE ( 'NONE', #137, 2.999999999999998224 ) ;
#175 = APPROVAL_DATE_TIME ( #20, #91 ) ;
#176 = APPROVAL ( #38, 'UNSPECIFIED' ) ;
#177 = CALENDAR_DATE ( 2023, 16, 2 ) ;
#178 = PERSON_AND_ORGANIZATION ( #145, #199 ) ;
#179 = COORDINATED_UNIVERSAL_TIME_OFFSET ( 1, 0, .AHEAD. ) ;
#180 = AXIS2_PLACEMENT_3D ( 'NONE', #184, #17, #183 ) ;
#181 = DIRECTION ( 'NONE',  ( -1.445602896647342861E-16, 1.000000000000000000, 0.000000000000000000 ) ) ;
#182 = ORIENTED_EDGE ( 'NONE', *, *, #133, .F. ) ;
#183 = DIRECTION ( 'NONE',  ( -1.224646799147353207E-16, 1.000000000000000000, 0.000000000000000000 ) ) ;
#184 = CARTESIAN_POINT ( 'NONE',  ( 1.836970198721029441E-17, 2.249639673992786070E-33, 0.000000000000000000 ) ) ;
#185 = EDGE_CURVE ( 'NONE', #78, #78, #174, .T. ) ;
#186 = AXIS2_PLACEMENT_3D ( 'NONE', #26, #13, #76 ) ;
#187 = PERSON_AND_ORGANIZATION_ROLE ( 'design_owner' ) ;
#188 = APPROVAL_ROLE ( '' ) ;
#189 = AXIS2_PLACEMENT_3D ( 'NONE', #83, #63, #4 ) ;
#190 = CARTESIAN_POINT ( 'NONE',  ( 0.000000000000000000, 0.000000000000000000, 0.000000000000000000 ) ) ;
#191 =( NAMED_UNIT ( * ) SI_UNIT ( $, .STERADIAN. ) SOLID_ANGLE_UNIT ( ) );
#192 = CALENDAR_DATE ( 2023, 16, 2 ) ;
#193 = CC_DESIGN_PERSON_AND_ORGANIZATION_ASSIGNMENT ( #131, #128, ( #125 ) ) ;
#194 = APPROVAL_PERSON_ORGANIZATION ( #47, #91, #188 ) ;
#195 = DATE_TIME_ROLE ( 'creation_date' ) ;
#196 = CALENDAR_DATE ( 2023, 16, 2 ) ;
#197 = PERSON_AND_ORGANIZATION_ROLE ( 'classification_officer' ) ;
#198 = AXIS2_PLACEMENT_3D ( 'NONE', #42, #158, #171 ) ;
#199 = ORGANIZATION ( 'UNSPECIFIED', 'UNSPECIFIED', '' ) ;
#200 = FACE_OUTER_BOUND ( 'NONE', #168, .T. ) ;
#201 = PLANE ( 'NONE',  #180 ) ;
#202 = CC_DESIGN_PERSON_AND_ORGANIZATION_ASSIGNMENT ( #111, #33, ( #77 ) ) ;
#203 = FACE_BOUND ( 'NONE', #122, .T. ) ;
ENDSEC;
END-ISO-10303-21;
