ISO-10303-21;
HEADER;
FILE_DESCRIPTION (( 'STEP AP203' ),
    '1' );
FILE_NAME ('636.step',
    '2021-12-06T13:00:00',
    ( '' ),
    ( '' ),
    'SwSTEP 2.0',
    'SolidWorks 2019',
    '' );
FILE_SCHEMA (( 'CONFIG_CONTROL_DESIGN' ));
ENDSEC;

DATA;
#1 = FACE_BOUND ( 'NONE', #90, .T. ) ;
#2 = CC_DESIGN_PERSON_AND_ORGANIZATION_ASSIGNMENT ( #124, #11, ( #129 ) ) ;
#3 = CARTESIAN_POINT ( 'NONE',  ( -1.817228364506207364E-30, 4.000000000000000000, -5.204748896376250699E-16 ) ) ;
#4 = AXIS2_PLACEMENT_3D ( 'NONE', #57, #41, #112 ) ;
#5 = CARTESIAN_POINT ( 'NONE',  ( 0.0000000000000000000, 0.0000000000000000000, 0.0000000000000000000 ) ) ;
#6 = DIRECTION ( 'NONE',  ( -3.491481338843133355E-15, 1.224646799147353207E-16, -1.000000000000000000 ) ) ;
#7 = COORDINATED_UNIVERSAL_TIME_OFFSET ( 1, 0, .AHEAD. ) ;
#8 = APPROVAL_PERSON_ORGANIZATION ( #104, #37, #153 ) ;
#9 = DIRECTION ( 'NONE',  ( -3.491481338843133355E-15, 1.224646799147353207E-16, -1.000000000000000000 ) ) ;
#10 = CALENDAR_DATE ( 2021, 6, 12 ) ;
#11 = PERSON_AND_ORGANIZATION_ROLE ( 'creator' ) ;
#12 = ADVANCED_BREP_SHAPE_REPRESENTATION ( '636', ( #108, #91 ), #128 ) ;
#13 = PRODUCT_RELATED_PRODUCT_CATEGORY ( 'detail', '', ( #74 ) ) ;
#14 = AXIS2_PLACEMENT_3D ( 'NONE', #32, #165, #162 ) ;
#15 = EDGE_LOOP ( 'NONE', ( #68 ) ) ;
#16 = APPLICATION_CONTEXT ( 'configuration controlled 3d designs of mechanical parts and assemblies' ) ;
#17 = ORIENTED_EDGE ( 'NONE', *, *, #122, .T. ) ;
#18 = FACE_OUTER_BOUND ( 'NONE', #105, .T. ) ;
#19 = PERSON_AND_ORGANIZATION ( #113, #61 ) ;
#20 =( NAMED_UNIT ( * ) PLANE_ANGLE_UNIT ( ) SI_UNIT ( $, .RADIAN. ) );
#21 = APPLICATION_PROTOCOL_DEFINITION ( 'international standard', 'config_control_design', 1994, #16 ) ;
#22 = LOCAL_TIME ( 14, 0, 0.0000000000000000000, #36 ) ;
#23 = DATE_TIME_ROLE ( 'creation_date' ) ;
#24 = APPROVAL_DATE_TIME ( #46, #115 ) ;
#25 = PRODUCT_DEFINITION_FORMATION_WITH_SPECIFIED_SOURCE ( 'ANY', '', #74, .NOT_KNOWN. ) ;
#26 = CLOSED_SHELL ( 'NONE', ( #58, #152, #81, #96 ) ) ;
#27 = EDGE_LOOP ( 'NONE', ( #135 ) ) ;
#28 = APPLICATION_PROTOCOL_DEFINITION ( 'international standard', 'config_control_design', 1994, #55 ) ;
#29 = APPROVAL_PERSON_ORGANIZATION ( #47, #115, #102 ) ;
#30 = CC_DESIGN_PERSON_AND_ORGANIZATION_ASSIGNMENT ( #19, #126, ( #74 ) ) ;
#31 = CARTESIAN_POINT ( 'NONE',  ( 6.982962677686265133E-15, 12.50000000000000000, 2.000000000000000000 ) ) ;
#32 = CARTESIAN_POINT ( 'NONE',  ( -1.710332578358783092E-30, 5.999039130647430431E-32, -4.898587196589412829E-16 ) ) ;
#33 = SHAPE_DEFINITION_REPRESENTATION ( #158, #12 ) ;
#34 = LOCAL_TIME ( 14, 0, 0.0000000000000000000, #49 ) ;
#35 = AXIS2_PLACEMENT_3D ( 'NONE', #159, #38, #94 ) ;
#36 = COORDINATED_UNIVERSAL_TIME_OFFSET ( 1, 0, .AHEAD. ) ;
#37 = APPROVAL ( #168, 'UNSPECIFIED' ) ;
#38 = DIRECTION ( 'NONE',  ( 3.491481338843133355E-15, -1.224646799147353207E-16, 1.000000000000000000 ) ) ;
#39 = CYLINDRICAL_SURFACE ( 'NONE', #146, 4.000000000000000000 ) ;
#40 = CARTESIAN_POINT ( 'NONE',  ( 0.0000000000000000000, 12.50000000000000000, 0.0000000000000000000 ) ) ;
#41 = DIRECTION ( 'NONE',  ( -3.491481338843133355E-15, 1.224646799147353207E-16, -1.000000000000000000 ) ) ;
#42 = DESIGN_CONTEXT ( 'detailed design', #55, 'design' ) ;
#43 = CARTESIAN_POINT ( 'NONE',  ( 3.421138828918010427E-46, 4.000000000000000000, 0.0000000000000000000 ) ) ;
#44 = DIRECTION ( 'NONE',  ( 0.0000000000000000000, 0.0000000000000000000, 1.000000000000000000 ) ) ;
#45 = APPROVAL ( #107, 'UNSPECIFIED' ) ;
#46 = DATE_AND_TIME ( #76, #34 ) ;
#47 = PERSON_AND_ORGANIZATION ( #113, #61 ) ;
#48 = APPROVAL_STATUS ( 'not_yet_approved' ) ;
#49 = COORDINATED_UNIVERSAL_TIME_OFFSET ( 1, 0, .AHEAD. ) ;
#50 = DIRECTION ( 'NONE',  ( -3.491481338843133355E-15, 1.224646799147353207E-16, -1.000000000000000000 ) ) ;
#51 = SECURITY_CLASSIFICATION ( '', '', #154 ) ;
#52 = AXIS2_PLACEMENT_3D ( 'NONE', #3, #50, #118 ) ;
#53 = FACE_OUTER_BOUND ( 'NONE', #27, .T. ) ;
#54 = ORIENTED_EDGE ( 'NONE', *, *, #169, .F. ) ;
#55 = APPLICATION_CONTEXT ( 'configuration controlled 3d designs of mechanical parts and assemblies' ) ;
#56 = CYLINDRICAL_SURFACE ( 'NONE', #167, 12.50000000000000000 ) ;
#57 = CARTESIAN_POINT ( 'NONE',  ( 6.982962677686265133E-15, -2.449293598294705921E-16, 1.999999999999999556 ) ) ;
#58 = ADVANCED_FACE ( 'NONE', ( #136, #144 ), #69, .T. ) ;
#59 = DIRECTION ( 'NONE',  ( -3.491481338843133355E-15, 1.224646799147353207E-16, -1.000000000000000000 ) ) ;
#60 = CARTESIAN_POINT ( 'NONE',  ( 6.982962677686266711E-15, 4.000000000000000000, 2.000000000000000000 ) ) ;
#61 = ORGANIZATION ( 'UNSPECIFIED', 'UNSPECIFIED', '' ) ;
#62 = CC_DESIGN_PERSON_AND_ORGANIZATION_ASSIGNMENT ( #89, #151, ( #51 ) ) ;
#63 = CARTESIAN_POINT ( 'NONE',  ( 6.982962677686260400E-15, -2.449293598294704442E-16, 1.999999999999998224 ) ) ;
#64 = PERSON_AND_ORGANIZATION_ROLE ( 'design_supplier' ) ;
#65 = PERSON_AND_ORGANIZATION ( #113, #61 ) ;
#66 = CC_DESIGN_APPROVAL ( #45, ( #129 ) ) ;
#67 = DATE_AND_TIME ( #10, #138 ) ;
#68 = ORIENTED_EDGE ( 'NONE', *, *, #140, .F. ) ;
#69 = PLANE ( 'NONE',  #52 ) ;
#70 = CC_DESIGN_PERSON_AND_ORGANIZATION_ASSIGNMENT ( #132, #150, ( #25 ) ) ;
#71 = UNCERTAINTY_MEASURE_WITH_UNIT (LENGTH_MEASURE( 1.000000000000000082E-05 ), #123, 'distance_accuracy_value', 'NONE');
#72 =( NAMED_UNIT ( * ) SI_UNIT ( $, .STERADIAN. ) SOLID_ANGLE_UNIT ( ) );
#73 = CARTESIAN_POINT ( 'NONE',  ( 0.0000000000000000000, 0.0000000000000000000, 0.0000000000000000000 ) ) ;
#74 = PRODUCT ( '636', '636', '', ( #75 ) ) ;
#75 = MECHANICAL_CONTEXT ( 'NONE', #16, 'mechanical' ) ;
#76 = CALENDAR_DATE ( 2021, 6, 12 ) ;
#77 = CIRCLE ( 'NONE', #164, 12.50000000000000000 ) ;
#78 = COORDINATED_UNIVERSAL_TIME_OFFSET ( 1, 0, .AHEAD. ) ;
#79 = EDGE_LOOP ( 'NONE', ( #143 ) ) ;
#80 = CARTESIAN_POINT ( 'NONE',  ( 0.0000000000000000000, 0.0000000000000000000, 0.0000000000000000000 ) ) ;
#81 = ADVANCED_FACE ( 'NONE', ( #1, #53 ), #141, .T. ) ;
#82 = APPROVAL_ROLE ( '' ) ;
#83 = VERTEX_POINT ( 'NONE', #60 ) ;
#84 = VERTEX_POINT ( 'NONE', #40 ) ;
#85 = CC_DESIGN_DATE_AND_TIME_ASSIGNMENT ( #101, #23, ( #129 ) ) ;
#86 = DIRECTION ( 'NONE',  ( -3.491481338843133355E-15, 1.224646799147353207E-16, -1.000000000000000000 ) ) ;
#87 = APPROVAL_PERSON_ORGANIZATION ( #98, #45, #82 ) ;
#88 = CC_DESIGN_PERSON_AND_ORGANIZATION_ASSIGNMENT ( #65, #64, ( #25 ) ) ;
#89 = PERSON_AND_ORGANIZATION ( #113, #61 ) ;
#90 = EDGE_LOOP ( 'NONE', ( #119 ) ) ;
#91 = AXIS2_PLACEMENT_3D ( 'NONE', #73, #44, #125 ) ;
#92 = AXIS2_PLACEMENT_3D ( 'NONE', #97, #59, #145 ) ;
#93 = EDGE_LOOP ( 'NONE', ( #17 ) ) ;
#94 = DIRECTION ( 'NONE',  ( -4.275831445896958607E-31, -1.000000000000000000, -1.224646799147353207E-16 ) ) ;
#95 = LOCAL_TIME ( 14, 0, 0.0000000000000000000, #7 ) ;
#96 = ADVANCED_FACE ( 'NONE', ( #134, #160 ), #39, .F. ) ;
#97 = CARTESIAN_POINT ( 'NONE',  ( -5.344789307371198171E-30, 1.874699728327322119E-31, -1.530808498934191521E-15 ) ) ;
#98 = PERSON_AND_ORGANIZATION ( #113, #61 ) ;
#99 = EDGE_CURVE ( 'NONE', #110, #110, #77, .T. ) ;
#100 = DIRECTION ( 'NONE',  ( 3.697785493223492838E-31, 1.000000000000000000, 1.387778780781445676E-16 ) ) ;
#101 = DATE_AND_TIME ( #139, #22 ) ;
#102 = APPROVAL_ROLE ( '' ) ;
#103 = CC_DESIGN_SECURITY_CLASSIFICATION ( #51, ( #25 ) ) ;
#104 = PERSON_AND_ORGANIZATION ( #113, #61 ) ;
#105 = EDGE_LOOP ( 'NONE', ( #54 ) ) ;
#106 = ORIENTED_EDGE ( 'NONE', *, *, #99, .T. ) ;
#107 = APPROVAL_STATUS ( 'not_yet_approved' ) ;
#108 = MANIFOLD_SOLID_BREP ( 'Corps-Déplacer/Copier1', #26 ) ;
#109 = DIRECTION ( 'NONE',  ( 4.275831445896958607E-31, 1.000000000000000000, 1.224646799147353207E-16 ) ) ;
#110 = VERTEX_POINT ( 'NONE', #31 ) ;
#111 = APPROVAL_DATE_TIME ( #147, #45 ) ;
#112 = DIRECTION ( 'NONE',  ( 3.851859888774471706E-31, 1.000000000000000000, 1.084202172485504434E-16 ) ) ;
#113 = PERSON ( 'UNSPECIFIED', 'UNSPECIFIED', 'UNSPECIFIED', ('UNSPECIFIED'), ('UNSPECIFIED'), ('UNSPECIFIED') ) ;
#114 = COORDINATED_UNIVERSAL_TIME_OFFSET ( 1, 0, .AHEAD. ) ;
#115 = APPROVAL ( #48, 'UNSPECIFIED' ) ;
#116 = DATE_AND_TIME ( #117, #149 ) ;
#117 = CALENDAR_DATE ( 2021, 6, 12 ) ;
#118 = DIRECTION ( 'NONE',  ( 4.275831445896958607E-31, 1.000000000000000000, 1.224646799147353207E-16 ) ) ;
#119 = ORIENTED_EDGE ( 'NONE', *, *, #140, .T. ) ;
#120 = CC_DESIGN_APPROVAL ( #37, ( #25 ) ) ;
#121 = EDGE_LOOP ( 'NONE', ( #106 ) ) ;
#122 = EDGE_CURVE ( 'NONE', #163, #163, #142, .T. ) ;
#123 =( LENGTH_UNIT ( ) NAMED_UNIT ( * ) SI_UNIT ( .MILLI., .METRE. ) );
#124 = PERSON_AND_ORGANIZATION ( #113, #61 ) ;
#125 = DIRECTION ( 'NONE',  ( 1.000000000000000000, 0.0000000000000000000, 0.0000000000000000000 ) ) ;
#126 = PERSON_AND_ORGANIZATION_ROLE ( 'design_owner' ) ;
#127 = FACE_OUTER_BOUND ( 'NONE', #121, .T. ) ;
#128 =( GEOMETRIC_REPRESENTATION_CONTEXT ( 3 ) GLOBAL_UNCERTAINTY_ASSIGNED_CONTEXT ( ( #71 ) ) GLOBAL_UNIT_ASSIGNED_CONTEXT ( ( #123, #20, #72 ) ) REPRESENTATION_CONTEXT ( 'NONE', 'WORKASPACE' ) );
#129 = PRODUCT_DEFINITION ( 'UNKNOWN', '', #25, #42 ) ;
#130 = APPROVAL_DATE_TIME ( #67, #37 ) ;
#131 = CIRCLE ( 'NONE', #4, 4.000000000000000000 ) ;
#132 = PERSON_AND_ORGANIZATION ( #113, #61 ) ;
#133 = CIRCLE ( 'NONE', #92, 12.50000000000000000 ) ;
#134 = FACE_OUTER_BOUND ( 'NONE', #93, .T. ) ;
#135 = ORIENTED_EDGE ( 'NONE', *, *, #99, .F. ) ;
#136 = FACE_OUTER_BOUND ( 'NONE', #155, .T. ) ;
#137 = CC_DESIGN_DATE_AND_TIME_ASSIGNMENT ( #116, #166, ( #51 ) ) ;
#138 = LOCAL_TIME ( 14, 0, 0.0000000000000000000, #78 ) ;
#139 = CALENDAR_DATE ( 2021, 6, 12 ) ;
#140 = EDGE_CURVE ( 'NONE', #83, #83, #131, .T. ) ;
#141 = PLANE ( 'NONE',  #35 ) ;
#142 = CIRCLE ( 'NONE', #14, 4.000000000000000000 ) ;
#143 = ORIENTED_EDGE ( 'NONE', *, *, #122, .F. ) ;
#144 = FACE_BOUND ( 'NONE', #79, .T. ) ;
#145 = DIRECTION ( 'NONE',  ( 4.275831445896958607E-31, 1.000000000000000000, 1.224646799147353207E-16 ) ) ;
#146 = AXIS2_PLACEMENT_3D ( 'NONE', #80, #9, #109 ) ;
#147 = DATE_AND_TIME ( #161, #95 ) ;
#148 = DIRECTION ( 'NONE',  ( 4.275831445896958607E-31, 1.000000000000000000, 1.224646799147353207E-16 ) ) ;
#149 = LOCAL_TIME ( 14, 0, 0.0000000000000000000, #114 ) ;
#150 = PERSON_AND_ORGANIZATION_ROLE ( 'creator' ) ;
#151 = PERSON_AND_ORGANIZATION_ROLE ( 'classification_officer' ) ;
#152 = ADVANCED_FACE ( 'NONE', ( #127, #18 ), #56, .T. ) ;
#153 = APPROVAL_ROLE ( '' ) ;
#154 = SECURITY_CLASSIFICATION_LEVEL ( 'unclassified' ) ;
#155 = EDGE_LOOP ( 'NONE', ( #157 ) ) ;
#156 = CC_DESIGN_APPROVAL ( #115, ( #51 ) ) ;
#157 = ORIENTED_EDGE ( 'NONE', *, *, #169, .T. ) ;
#158 = PRODUCT_DEFINITION_SHAPE ( 'NONE', 'NONE',  #129 ) ;
#159 = CARTESIAN_POINT ( 'NONE',  ( 6.982962677686265133E-15, 4.000000000000000000, 1.999999999999999556 ) ) ;
#160 = FACE_OUTER_BOUND ( 'NONE', #15, .T. ) ;
#161 = CALENDAR_DATE ( 2021, 6, 12 ) ;
#162 = DIRECTION ( 'NONE',  ( 4.275831445896958607E-31, 1.000000000000000000, 1.224646799147353207E-16 ) ) ;
#163 = VERTEX_POINT ( 'NONE', #43 ) ;
#164 = AXIS2_PLACEMENT_3D ( 'NONE', #63, #86, #100 ) ;
#165 = DIRECTION ( 'NONE',  ( -3.491481338843133355E-15, 1.224646799147353207E-16, -1.000000000000000000 ) ) ;
#166 = DATE_TIME_ROLE ( 'classification_date' ) ;
#167 = AXIS2_PLACEMENT_3D ( 'NONE', #5, #6, #148 ) ;
#168 = APPROVAL_STATUS ( 'not_yet_approved' ) ;
#169 = EDGE_CURVE ( 'NONE', #84, #84, #133, .T. ) ;
ENDSEC;
END-ISO-10303-21;
