ISO-10303-21;
HEADER;
FILE_DESCRIPTION (( 'STEP AP203' ),
    '1' );
FILE_NAME ('63459.step',
    '2021-11-30T08:32:43',
    ( '' ),
    ( '' ),
    'SwSTEP 2.0',
    'SolidWorks 2019',
    '' );
FILE_SCHEMA (( 'CONFIG_CONTROL_DESIGN' ));
ENDSEC;

DATA;
#1 = CARTESIAN_POINT ( 'NONE',  ( 1.745740669421566678E-13, 1.199999999999995515, 50.00000000000000000 ) ) ;
#2 = FACE_OUTER_BOUND ( 'NONE', #268, .T. ) ;
#3 = PERSON_AND_ORGANIZATION ( #50, #171 ) ;
#4 = CARTESIAN_POINT ( 'NONE',  ( 2.444036937190193349E-14, 0.8934999999999990727, 7.000000000000000000 ) ) ;
#5 = APPROVAL_ROLE ( '' ) ;
#6 = PERSON_AND_ORGANIZATION ( #50, #171 ) ;
#7 = AXIS2_PLACEMENT_3D ( 'NONE', #102, #194, #219 ) ;
#8 = SHAPE_DEFINITION_REPRESENTATION ( #273, #182 ) ;
#9 = DIRECTION ( 'NONE',  ( 0.0000000000000000000, 1.000000000000000000, 0.0000000000000000000 ) ) ;
#10 = CARTESIAN_POINT ( 'NONE',  ( 1.745740669421566678E-13, -6.123233995736766085E-15, 50.00000000000000000 ) ) ;
#11 = AXIS2_PLACEMENT_3D ( 'NONE', #39, #117, #274 ) ;
#12 = EDGE_LOOP ( 'NONE', ( #111 ) ) ;
#13 = DIRECTION ( 'NONE',  ( -4.275831445896958607E-31, -1.000000000000000000, -1.224646799147353207E-16 ) ) ;
#14 = CARTESIAN_POINT ( 'NONE',  ( 2.506627765991135921E-14, -8.792066668447524607E-16, 7.179267258583376332 ) ) ;
#15 = EDGE_LOOP ( 'NONE', ( #218 ) ) ;
#16 = PLANE ( 'NONE',  #103 ) ;
#17 = EDGE_LOOP ( 'NONE', ( #37 ) ) ;
#18 = DIRECTION ( 'NONE',  ( 4.275831445896958607E-31, 1.000000000000000000, 1.224646799147353207E-16 ) ) ;
#19 = CC_DESIGN_APPROVAL ( #278, ( #227 ) ) ;
#20 = PRODUCT_DEFINITION ( 'UNKNOWN', '', #28, #145 ) ;
#21 = CARTESIAN_POINT ( 'NONE',  ( 2.506627765991135921E-14, 0.7900000000000008127, 7.179267258583376332 ) ) ;
#22 = DATE_AND_TIME ( #190, #127 ) ;
#23 = CC_DESIGN_APPROVAL ( #248, ( #28 ) ) ;
#24 = APPROVAL_STATUS ( 'not_yet_approved' ) ;
#25 = DIRECTION ( 'NONE',  ( 1.000000000000000000, 0.0000000000000000000, 0.0000000000000000000 ) ) ;
#26 = PERSON_AND_ORGANIZATION ( #50, #171 ) ;
#27 = TOROIDAL_SURFACE ( 'NONE', #234, 2.790000000000000036, 2.000000000000000000 ) ;
#28 = PRODUCT_DEFINITION_FORMATION_WITH_SPECIFIED_SOURCE ( 'ANY', '', #236, .NOT_KNOWN. ) ;
#29 = DIRECTION ( 'NONE',  ( -3.491481338843133355E-15, 1.224646799147353207E-16, -1.000000000000000000 ) ) ;
#30 = ORIENTED_EDGE ( 'NONE', *, *, #202, .F. ) ;
#31 = ORIENTED_EDGE ( 'NONE', *, *, #66, .F. ) ;
#32 = CIRCLE ( 'NONE', #113, 0.8203844939755813304 ) ;
#33 = ORIENTED_EDGE ( 'NONE', *, *, #245, .T. ) ;
#34 = DIRECTION ( 'NONE',  ( 3.491481338843133355E-15, -1.224646799147353207E-16, 1.000000000000000000 ) ) ;
#35 = CARTESIAN_POINT ( 'NONE',  ( 1.735266225405037467E-13, -6.086494591762345225E-15, 49.70000000000000284 ) ) ;
#36 = CARTESIAN_POINT ( 'NONE',  ( -6.552782307256285894E-32, 2.298406635834911512E-33, -1.876791445039624443E-17 ) ) ;
#37 = ORIENTED_EDGE ( 'NONE', *, *, #202, .T. ) ;
#38 = APPROVAL_PERSON_ORGANIZATION ( #3, #269, #5 ) ;
#39 = CARTESIAN_POINT ( 'NONE',  ( 7.402494682722196376E-14, -2.596445616949733050E-15, 21.20158741898055510 ) ) ;
#40 = DIRECTION ( 'NONE',  ( -3.491481338843133355E-15, 1.224646799147353207E-16, -1.000000000000000000 ) ) ;
#41 = DIRECTION ( 'NONE',  ( 0.0000000000000000000, 1.000000000000000000, 0.0000000000000000000 ) ) ;
#42 = DIRECTION ( 'NONE',  ( -3.491481338843133355E-15, 1.224646799147353207E-16, -1.000000000000000000 ) ) ;
#43 = CC_DESIGN_PERSON_AND_ORGANIZATION_ASSIGNMENT ( #168, #49, ( #28 ) ) ;
#44 = UNCERTAINTY_MEASURE_WITH_UNIT (LENGTH_MEASURE( 1.000000000000000082E-05 ), #68, 'distance_accuracy_value', 'NONE');
#45 = PERSON_AND_ORGANIZATION ( #50, #171 ) ;
#46 = AXIS2_PLACEMENT_3D ( 'NONE', #185, #40, #18 ) ;
#47 = APPROVAL_DATE_TIME ( #189, #269 ) ;
#48 = PERSON_AND_ORGANIZATION ( #50, #171 ) ;
#49 = PERSON_AND_ORGANIZATION_ROLE ( 'design_supplier' ) ;
#50 = PERSON ( 'UNSPECIFIED', 'UNSPECIFIED', 'UNSPECIFIED', ('UNSPECIFIED'), ('UNSPECIFIED'), ('UNSPECIFIED') ) ;
#51 = CIRCLE ( 'NONE', #11, 1.499999999999996669 ) ;
#52 = CARTESIAN_POINT ( 'NONE',  ( 1.745740669421566678E-13, -6.123233995736766085E-15, 50.00000000000000000 ) ) ;
#53 = CONICAL_SURFACE ( 'NONE', #247, 0.8934999999999999609, 0.5235987755982978165 ) ;
#54 = FACE_OUTER_BOUND ( 'NONE', #300, .T. ) ;
#55 = VERTEX_POINT ( 'NONE', #197 ) ;
#56 = CARTESIAN_POINT ( 'NONE',  ( 2.444036937190193349E-14, 6.700176829041834275E-33, 7.000000000000000000 ) ) ;
#57 = EDGE_LOOP ( 'NONE', ( #256 ) ) ;
#58 = CARTESIAN_POINT ( 'NONE',  ( 2.444036937190193349E-14, 6.700176829041834275E-33, 7.000000000000000000 ) ) ;
#59 = AXIS2_PLACEMENT_3D ( 'NONE', #136, #244, #81 ) ;
#60 = ORIENTED_EDGE ( 'NONE', *, *, #302, .T. ) ;
#61 = FACE_BOUND ( 'NONE', #297, .T. ) ;
#62 = ORIENTED_EDGE ( 'NONE', *, *, #124, .T. ) ;
#63 = LOCAL_TIME ( 9, 32, 43.00000000000000000, #233 ) ;
#64 = DIRECTION ( 'NONE',  ( 0.0000000000000000000, 0.0000000000000000000, 1.000000000000000000 ) ) ;
#65 = FACE_OUTER_BOUND ( 'NONE', #299, .T. ) ;
#66 = EDGE_CURVE ( 'NONE', #150, #150, #196, .T. ) ;
#67 = DIRECTION ( 'NONE',  ( -4.275831445896958607E-31, -1.000000000000000000, -1.224646799147353207E-16 ) ) ;
#68 =( LENGTH_UNIT ( ) NAMED_UNIT ( * ) SI_UNIT ( .MILLI., .METRE. ) );
#69 = PLANE ( 'NONE',  #230 ) ;
#70 = AXIS2_PLACEMENT_3D ( 'NONE', #10, #76, #148 ) ;
#71 = SECURITY_CLASSIFICATION_LEVEL ( 'unclassified' ) ;
#72 = PERSON_AND_ORGANIZATION_ROLE ( 'creator' ) ;
#73 = COORDINATED_UNIVERSAL_TIME_OFFSET ( 1, 0, .AHEAD. ) ;
#74 = APPROVAL_STATUS ( 'not_yet_approved' ) ;
#75 = ADVANCED_FACE ( 'NONE', ( #109, #288 ), #27, .F. ) ;
#76 = DIRECTION ( 'NONE',  ( -3.491481338843133355E-15, 1.224646799147353207E-16, -1.000000000000000000 ) ) ;
#77 = CARTESIAN_POINT ( 'NONE',  ( 5.935518276033326704E-14, 0.7899999999999977041, 17.00000000000000000 ) ) ;
#78 = CIRCLE ( 'NONE', #231, 0.8934999999999999609 ) ;
#79 = DIRECTION ( 'NONE',  ( -3.491481338843133355E-15, 1.224646799147353207E-16, -1.000000000000000000 ) ) ;
#80 = ORIENTED_EDGE ( 'NONE', *, *, #66, .T. ) ;
#81 = DIRECTION ( 'NONE',  ( 4.275831445896958607E-31, 1.000000000000000000, 1.224646799147353207E-16 ) ) ;
#82 = ADVANCED_FACE ( 'NONE', ( #243 ), #172, .T. ) ;
#83 = FACE_BOUND ( 'NONE', #181, .T. ) ;
#84 = AXIS2_PLACEMENT_3D ( 'NONE', #225, #137, #303 ) ;
#85 = CC_DESIGN_DATE_AND_TIME_ASSIGNMENT ( #22, #254, ( #227 ) ) ;
#86 = EDGE_LOOP ( 'NONE', ( #301 ) ) ;
#87 = CARTESIAN_POINT ( 'NONE',  ( 6.056776150402963091E-14, -2.124431095542013992E-15, 17.34729635533384595 ) ) ;
#88 = AXIS2_PLACEMENT_3D ( 'NONE', #36, #277, #67 ) ;
#89 =( GEOMETRIC_REPRESENTATION_CONTEXT ( 3 ) GLOBAL_UNCERTAINTY_ASSIGNED_CONTEXT ( ( #44 ) ) GLOBAL_UNIT_ASSIGNED_CONTEXT ( ( #68, #143, #204 ) ) REPRESENTATION_CONTEXT ( 'NONE', 'WORKASPACE' ) );
#90 = VERTEX_POINT ( 'NONE', #1 ) ;
#91 = PLANE ( 'NONE',  #88 ) ;
#92 = CARTESIAN_POINT ( 'NONE',  ( 1.745740669421566678E-13, 8.998558695971067645E-33, 50.00000000000000000 ) ) ;
#93 = AXIS2_PLACEMENT_3D ( 'NONE', #52, #79, #264 ) ;
#94 = DATE_AND_TIME ( #128, #63 ) ;
#95 = CC_DESIGN_PERSON_AND_ORGANIZATION_ASSIGNMENT ( #6, #285, ( #28 ) ) ;
#96 = APPLICATION_PROTOCOL_DEFINITION ( 'international standard', 'config_control_design', 1994, #228 ) ;
#97 = AXIS2_PLACEMENT_3D ( 'NONE', #184, #64, #25 ) ;
#98 = DATE_AND_TIME ( #281, #121 ) ;
#99 = DIRECTION ( 'NONE',  ( 3.491481338843133355E-15, -1.224646799147353207E-16, 1.000000000000000000 ) ) ;
#100 = CARTESIAN_POINT ( 'NONE',  ( 8.728703347107829444E-16, -3.061616997868381785E-17, 0.2499999999999998890 ) ) ;
#101 = ADVANCED_FACE ( 'NONE', ( #106, #200 ), #162, .T. ) ;
#102 = CARTESIAN_POINT ( 'NONE',  ( 5.935518276033326704E-14, -2.081899558550500280E-15, 17.00000000000000000 ) ) ;
#103 = AXIS2_PLACEMENT_3D ( 'NONE', #58, #173, #170 ) ;
#104 = CC_DESIGN_SECURITY_CLASSIFICATION ( #227, ( #28 ) ) ;
#105 = ORIENTED_EDGE ( 'NONE', *, *, #124, .F. ) ;
#106 = FACE_BOUND ( 'NONE', #57, .T. ) ;
#107 = DIRECTION ( 'NONE',  ( 0.0000000000000000000, 1.000000000000000000, 0.0000000000000000000 ) ) ;
#108 = EDGE_LOOP ( 'NONE', ( #221 ) ) ;
#109 = FACE_OUTER_BOUND ( 'NONE', #176, .T. ) ;
#110 = DIRECTION ( 'NONE',  ( -3.491481338843133355E-15, 1.224646799147353207E-16, -1.000000000000000000 ) ) ;
#111 = ORIENTED_EDGE ( 'NONE', *, *, #250, .F. ) ;
#112 = EDGE_CURVE ( 'NONE', #263, #263, #32, .T. ) ;
#113 = AXIS2_PLACEMENT_3D ( 'NONE', #87, #154, #41 ) ;
#114 = EDGE_LOOP ( 'NONE', ( #199 ) ) ;
#115 = EDGE_LOOP ( 'NONE', ( #60 ) ) ;
#116 = MANIFOLD_SOLID_BREP ( 'Corps-Déplacer/Copier1[1]', #272 ) ;
#117 = DIRECTION ( 'NONE',  ( -3.491481338843133355E-15, 1.224646799147353207E-16, -1.000000000000000000 ) ) ;
#118 = AXIS2_PLACEMENT_3D ( 'NONE', #161, #42, #188 ) ;
#119 = CIRCLE ( 'NONE', #70, 1.200000000000001732 ) ;
#120 = CIRCLE ( 'NONE', #283, 0.7900000000000015898 ) ;
#121 = LOCAL_TIME ( 9, 32, 43.00000000000000000, #209 ) ;
#122 = COORDINATED_UNIVERSAL_TIME_OFFSET ( 1, 0, .AHEAD. ) ;
#123 = DATE_AND_TIME ( #169, #138 ) ;
#124 = EDGE_CURVE ( 'NONE', #149, #149, #51, .T. ) ;
#125 = PERSON_AND_ORGANIZATION_ROLE ( 'design_owner' ) ;
#126 = AXIS2_PLACEMENT_3D ( 'NONE', #56, #34, #13 ) ;
#127 = LOCAL_TIME ( 9, 32, 43.00000000000000000, #73 ) ;
#128 = CALENDAR_DATE ( 2021, 30, 11 ) ;
#129 = CARTESIAN_POINT ( 'NONE',  ( 0.0000000000000000000, 0.0000000000000000000, 0.0000000000000000000 ) ) ;
#130 = FACE_OUTER_BOUND ( 'NONE', #15, .T. ) ;
#131 = ORIENTED_EDGE ( 'NONE', *, *, #286, .T. ) ;
#132 = FACE_OUTER_BOUND ( 'NONE', #216, .T. ) ;
#133 = APPROVAL_PERSON_ORGANIZATION ( #167, #248, #229 ) ;
#134 = EDGE_LOOP ( 'NONE', ( #62 ) ) ;
#135 = CYLINDRICAL_SURFACE ( 'NONE', #179, 0.8934999999999995168 ) ;
#136 = CARTESIAN_POINT ( 'NONE',  ( -1.310556461451257179E-31, 4.596813271669823025E-33, -3.753582890079248887E-17 ) ) ;
#137 = DIRECTION ( 'NONE',  ( 3.491481338843133355E-15, -1.224646799147353207E-16, 1.000000000000000000 ) ) ;
#138 = LOCAL_TIME ( 9, 32, 43.00000000000000000, #122 ) ;
#139 = ORIENTED_EDGE ( 'NONE', *, *, #276, .F. ) ;
#140 = VERTEX_POINT ( 'NONE', #21 ) ;
#141 = APPLICATION_PROTOCOL_DEFINITION ( 'international standard', 'config_control_design', 1994, #215 ) ;
#142 = APPROVAL_PERSON_ORGANIZATION ( #48, #278, #207 ) ;
#143 =( NAMED_UNIT ( * ) PLANE_ANGLE_UNIT ( ) SI_UNIT ( $, .RADIAN. ) );
#144 = CLOSED_SHELL ( 'NONE', ( #191, #101, #226, #82 ) ) ;
#145 = DESIGN_CONTEXT ( 'detailed design', #228, 'design' ) ;
#146 = PERSON_AND_ORGANIZATION ( #50, #171 ) ;
#147 = PERSON_AND_ORGANIZATION_ROLE ( 'classification_officer' ) ;
#148 = DIRECTION ( 'NONE',  ( 0.0000000000000000000, 1.000000000000000000, 0.0000000000000000000 ) ) ;
#149 = VERTEX_POINT ( 'NONE', #238 ) ;
#150 = VERTEX_POINT ( 'NONE', #77 ) ;
#151 = CIRCLE ( 'NONE', #59, 0.7491624327025947494 ) ;
#152 = DIRECTION ( 'NONE',  ( -3.491481338843133355E-15, 1.224646799147353207E-16, -1.000000000000000000 ) ) ;
#153 = FACE_OUTER_BOUND ( 'NONE', #134, .T. ) ;
#154 = DIRECTION ( 'NONE',  ( -3.491481338843133355E-15, 1.224646799147353207E-16, -1.000000000000000000 ) ) ;
#155 = EDGE_LOOP ( 'NONE', ( #270 ) ) ;
#156 = VERTEX_POINT ( 'NONE', #186 ) ;
#157 = CONICAL_SURFACE ( 'NONE', #93, 1.200000000000001732, 0.7853981633974453924 ) ;
#158 = EDGE_LOOP ( 'NONE', ( #237 ) ) ;
#159 = FACE_OUTER_BOUND ( 'NONE', #294, .T. ) ;
#160 = CC_DESIGN_PERSON_AND_ORGANIZATION_ASSIGNMENT ( #45, #147, ( #227 ) ) ;
#161 = CARTESIAN_POINT ( 'NONE',  ( 2.444036937190193349E-14, -8.572527594031473190E-16, 7.000000000000000000 ) ) ;
#162 = CONICAL_SURFACE ( 'NONE', #84, 0.8934999999999990727, 0.5235987755982928205 ) ;
#163 = VERTEX_POINT ( 'NONE', #4 ) ;
#164 = DIRECTION ( 'NONE',  ( -3.491481338843133355E-15, 1.224646799147353207E-16, -1.000000000000000000 ) ) ;
#165 = APPROVAL_STATUS ( 'not_yet_approved' ) ;
#166 = CALENDAR_DATE ( 2021, 30, 11 ) ;
#167 = PERSON_AND_ORGANIZATION ( #50, #171 ) ;
#168 = PERSON_AND_ORGANIZATION ( #50, #171 ) ;
#169 = CALENDAR_DATE ( 2021, 30, 11 ) ;
#170 = DIRECTION ( 'NONE',  ( -4.275831445896958607E-31, -1.000000000000000000, -1.224646799147353207E-16 ) ) ;
#171 = ORGANIZATION ( 'UNSPECIFIED', 'UNSPECIFIED', '' ) ;
#172 = PLANE ( 'NONE',  #126 ) ;
#173 = DIRECTION ( 'NONE',  ( 3.491481338843133355E-15, -1.224646799147353207E-16, 1.000000000000000000 ) ) ;
#174 = DIRECTION ( 'NONE',  ( 4.275831445896958607E-31, 1.000000000000000000, 1.224646799147353207E-16 ) ) ;
#175 = DIRECTION ( 'NONE',  ( -3.491481338843133355E-15, 1.224646799147353207E-16, -1.000000000000000000 ) ) ;
#176 = EDGE_LOOP ( 'NONE', ( #31 ) ) ;
#177 = DIRECTION ( 'NONE',  ( -3.491481338843133355E-15, 1.224646799147353207E-16, -1.000000000000000000 ) ) ;
#178 = CARTESIAN_POINT ( 'NONE',  ( 5.935518276033326704E-14, -2.168404344971008868E-15, 17.00000000000000000 ) ) ;
#179 = AXIS2_PLACEMENT_3D ( 'NONE', #129, #296, #214 ) ;
#180 = FACE_OUTER_BOUND ( 'NONE', #86, .T. ) ;
#181 = EDGE_LOOP ( 'NONE', ( #33 ) ) ;
#182 = ADVANCED_BREP_SHAPE_REPRESENTATION ( '63459', ( #116, #206, #97 ), #89 ) ;
#183 = ADVANCED_FACE ( 'NONE', ( #65, #159 ), #249, .T. ) ;
#184 = CARTESIAN_POINT ( 'NONE',  ( 0.0000000000000000000, 0.0000000000000000000, 0.0000000000000000000 ) ) ;
#185 = CARTESIAN_POINT ( 'NONE',  ( 0.0000000000000000000, 0.0000000000000000000, 0.0000000000000000000 ) ) ;
#186 = CARTESIAN_POINT ( 'NONE',  ( 8.728703347107833388E-16, 0.8934999999999990727, 0.2500000000000000000 ) ) ;
#187 = CC_DESIGN_PERSON_AND_ORGANIZATION_ASSIGNMENT ( #146, #125, ( #236 ) ) ;
#188 = DIRECTION ( 'NONE',  ( 0.0000000000000000000, 1.000000000000000000, 0.0000000000000000000 ) ) ;
#189 = DATE_AND_TIME ( #166, #251 ) ;
#190 = CALENDAR_DATE ( 2021, 30, 11 ) ;
#191 = ADVANCED_FACE ( 'NONE', ( #201 ), #91, .F. ) ;
#192 = DIRECTION ( 'NONE',  ( 0.0000000000000000000, -1.000000000000000000, 0.0000000000000000000 ) ) ;
#193 = CC_DESIGN_DATE_AND_TIME_ASSIGNMENT ( #98, #252, ( #20 ) ) ;
#194 = DIRECTION ( 'NONE',  ( -3.491481338843133355E-15, 1.224646799147353207E-16, -1.000000000000000000 ) ) ;
#195 = DIRECTION ( 'NONE',  ( -3.491481338843133355E-15, 1.224646799147353207E-16, -1.000000000000000000 ) ) ;
#196 = CIRCLE ( 'NONE', #7, 0.7899999999999998135 ) ;
#197 = CARTESIAN_POINT ( 'NONE',  ( 1.735266225405037467E-13, 1.499999999999995559, 49.70000000000000284 ) ) ;
#198 = DIRECTION ( 'NONE',  ( 0.0000000000000000000, 1.000000000000000000, 0.0000000000000000000 ) ) ;
#199 = ORIENTED_EDGE ( 'NONE', *, *, #112, .T. ) ;
#200 = FACE_OUTER_BOUND ( 'NONE', #115, .T. ) ;
#201 = FACE_OUTER_BOUND ( 'NONE', #155, .T. ) ;
#202 = EDGE_CURVE ( 'NONE', #163, #163, #279, .T. ) ;
#203 = DIRECTION ( 'NONE',  ( 4.275831445896958607E-31, 1.000000000000000000, 1.224646799147353207E-16 ) ) ;
#204 =( NAMED_UNIT ( * ) SI_UNIT ( $, .STERADIAN. ) SOLID_ANGLE_UNIT ( ) );
#205 = AXIS2_PLACEMENT_3D ( 'NONE', #222, #99, #192 ) ;
#206 = MANIFOLD_SOLID_BREP ( 'Corps-Déplacer/Copier1[2]', #144 ) ;
#207 = APPROVAL_ROLE ( '' ) ;
#208 = APPROVAL_DATE_TIME ( #123, #248 ) ;
#209 = COORDINATED_UNIVERSAL_TIME_OFFSET ( 1, 0, .AHEAD. ) ;
#210 = APPROVAL_DATE_TIME ( #94, #278 ) ;
#211 = ADVANCED_FACE ( 'NONE', ( #2 ), #69, .F. ) ;
#212 = CC_DESIGN_PERSON_AND_ORGANIZATION_ASSIGNMENT ( #26, #72, ( #20 ) ) ;
#213 = CYLINDRICAL_SURFACE ( 'NONE', #223, 1.499999999999999112 ) ;
#214 = DIRECTION ( 'NONE',  ( 4.275831445896959482E-31, 1.000000000000000000, 1.224646799147353207E-16 ) ) ;
#215 = APPLICATION_CONTEXT ( 'configuration controlled 3d designs of mechanical parts and assemblies' ) ;
#216 = EDGE_LOOP ( 'NONE', ( #105 ) ) ;
#217 = CARTESIAN_POINT ( 'NONE',  ( 0.0000000000000000000, 0.0000000000000000000, 0.0000000000000000000 ) ) ;
#218 = ORIENTED_EDGE ( 'NONE', *, *, #302, .F. ) ;
#219 = DIRECTION ( 'NONE',  ( 0.0000000000000000000, 1.000000000000000000, 0.0000000000000000000 ) ) ;
#220 = FACE_OUTER_BOUND ( 'NONE', #158, .T. ) ;
#221 = ORIENTED_EDGE ( 'NONE', *, *, #276, .T. ) ;
#222 = CARTESIAN_POINT ( 'NONE',  ( 7.402494682722196376E-14, -2.596445616949733050E-15, 21.20158741898055510 ) ) ;
#223 = AXIS2_PLACEMENT_3D ( 'NONE', #217, #177, #265 ) ;
#224 = ADVANCED_FACE ( 'NONE', ( #54 ), #16, .F. ) ;
#225 = CARTESIAN_POINT ( 'NONE',  ( 8.728703347107829444E-16, -3.061616997868381785E-17, 0.2499999999999998890 ) ) ;
#226 = ADVANCED_FACE ( 'NONE', ( #130, #242 ), #135, .T. ) ;
#227 = SECURITY_CLASSIFICATION ( '', '', #71 ) ;
#228 = APPLICATION_CONTEXT ( 'configuration controlled 3d designs of mechanical parts and assemblies' ) ;
#229 = APPROVAL_ROLE ( '' ) ;
#230 = AXIS2_PLACEMENT_3D ( 'NONE', #92, #164, #203 ) ;
#231 = AXIS2_PLACEMENT_3D ( 'NONE', #235, #29, #9 ) ;
#232 = ADVANCED_FACE ( 'NONE', ( #132, #220 ), #213, .T. ) ;
#233 = COORDINATED_UNIVERSAL_TIME_OFFSET ( 1, 0, .AHEAD. ) ;
#234 = AXIS2_PLACEMENT_3D ( 'NONE', #178, #152, #174 ) ;
#235 = CARTESIAN_POINT ( 'NONE',  ( 2.444036937190193349E-14, -8.572527594031473190E-16, 7.000000000000000000 ) ) ;
#236 = PRODUCT ( '63459', '63459', '', ( #253 ) ) ;
#237 = ORIENTED_EDGE ( 'NONE', *, *, #250, .T. ) ;
#238 = CARTESIAN_POINT ( 'NONE',  ( 7.402494682722196376E-14, 1.499999999999994005, 21.20158741898055510 ) ) ;
#239 = CARTESIAN_POINT ( 'NONE',  ( 6.056776150402963091E-14, 0.8203844939755791099, 17.34729635533384595 ) ) ;
#240 = ORIENTED_EDGE ( 'NONE', *, *, #112, .F. ) ;
#241 = CC_DESIGN_APPROVAL ( #269, ( #20 ) ) ;
#242 = FACE_OUTER_BOUND ( 'NONE', #17, .T. ) ;
#243 = FACE_OUTER_BOUND ( 'NONE', #266, .T. ) ;
#244 = DIRECTION ( 'NONE',  ( -3.491481338843133355E-15, 1.224646799147353207E-16, -1.000000000000000000 ) ) ;
#245 = EDGE_CURVE ( 'NONE', #140, #140, #120, .T. ) ;
#246 = ORIENTED_EDGE ( 'NONE', *, *, #245, .F. ) ;
#247 = AXIS2_PLACEMENT_3D ( 'NONE', #267, #175, #107 ) ;
#248 = APPROVAL ( #24, 'UNSPECIFIED' ) ;
#249 = CYLINDRICAL_SURFACE ( 'NONE', #46, 0.7900000000000008127 ) ;
#250 = EDGE_CURVE ( 'NONE', #55, #55, #290, .T. ) ;
#251 = LOCAL_TIME ( 9, 32, 43.00000000000000000, #257 ) ;
#252 = DATE_TIME_ROLE ( 'creation_date' ) ;
#253 = MECHANICAL_CONTEXT ( 'NONE', #215, 'mechanical' ) ;
#254 = DATE_TIME_ROLE ( 'classification_date' ) ;
#255 = EDGE_CURVE ( 'NONE', #293, #293, #151, .T. ) ;
#256 = ORIENTED_EDGE ( 'NONE', *, *, #255, .F. ) ;
#257 = COORDINATED_UNIVERSAL_TIME_OFFSET ( 1, 0, .AHEAD. ) ;
#258 = ADVANCED_FACE ( 'NONE', ( #83, #180 ), #53, .T. ) ;
#259 = FACE_BOUND ( 'NONE', #108, .T. ) ;
#260 = AXIS2_PLACEMENT_3D ( 'NONE', #35, #298, #287 ) ;
#261 = AXIS2_PLACEMENT_3D ( 'NONE', #100, #195, #289 ) ;
#262 = ADVANCED_FACE ( 'NONE', ( #61, #153 ), #284, .T. ) ;
#263 = VERTEX_POINT ( 'NONE', #239 ) ;
#264 = DIRECTION ( 'NONE',  ( 0.0000000000000000000, 1.000000000000000000, 0.0000000000000000000 ) ) ;
#265 = DIRECTION ( 'NONE',  ( 4.275831445896958607E-31, 1.000000000000000000, 1.224646799147353454E-16 ) ) ;
#266 = EDGE_LOOP ( 'NONE', ( #30 ) ) ;
#267 = CARTESIAN_POINT ( 'NONE',  ( 2.444036937190193349E-14, -8.572527594031473190E-16, 7.000000000000000000 ) ) ;
#268 = EDGE_LOOP ( 'NONE', ( #139 ) ) ;
#269 = APPROVAL ( #74, 'UNSPECIFIED' ) ;
#270 = ORIENTED_EDGE ( 'NONE', *, *, #255, .T. ) ;
#271 = CARTESIAN_POINT ( 'NONE',  ( 1.892735826383161356E-31, 0.7491624327025947494, 5.421010862427522170E-17 ) ) ;
#272 = CLOSED_SHELL ( 'NONE', ( #224, #258, #183, #75, #262, #232, #282, #211 ) ) ;
#273 = PRODUCT_DEFINITION_SHAPE ( 'NONE', 'NONE',  #20 ) ;
#274 = DIRECTION ( 'NONE',  ( 0.0000000000000000000, 1.000000000000000000, 0.0000000000000000000 ) ) ;
#275 = VERTEX_POINT ( 'NONE', #280 ) ;
#276 = EDGE_CURVE ( 'NONE', #90, #90, #119, .T. ) ;
#277 = DIRECTION ( 'NONE',  ( 3.491481338843133355E-15, -1.224646799147353207E-16, 1.000000000000000000 ) ) ;
#278 = APPROVAL ( #165, 'UNSPECIFIED' ) ;
#279 = CIRCLE ( 'NONE', #118, 0.8934999999999999609 ) ;
#280 = CARTESIAN_POINT ( 'NONE',  ( 2.444036937190193349E-14, 0.8934999999999990727, 7.000000000000000000 ) ) ;
#281 = CALENDAR_DATE ( 2021, 30, 11 ) ;
#282 = ADVANCED_FACE ( 'NONE', ( #292, #259 ), #157, .T. ) ;
#283 = AXIS2_PLACEMENT_3D ( 'NONE', #14, #110, #198 ) ;
#284 = CONICAL_SURFACE ( 'NONE', #205, 1.499999999999996669, 0.1745329251994261754 ) ;
#285 = PERSON_AND_ORGANIZATION_ROLE ( 'creator' ) ;
#286 = EDGE_CURVE ( 'NONE', #275, #275, #78, .T. ) ;
#287 = DIRECTION ( 'NONE',  ( 0.0000000000000000000, 1.000000000000000000, 0.0000000000000000000 ) ) ;
#288 = FACE_OUTER_BOUND ( 'NONE', #114, .T. ) ;
#289 = DIRECTION ( 'NONE',  ( 4.310979170424707128E-31, 1.000000000000000000, 1.213432761595417562E-16 ) ) ;
#290 = CIRCLE ( 'NONE', #260, 1.500000000000001554 ) ;
#291 = CIRCLE ( 'NONE', #261, 0.8934999999999990727 ) ;
#292 = FACE_OUTER_BOUND ( 'NONE', #12, .T. ) ;
#293 = VERTEX_POINT ( 'NONE', #271 ) ;
#294 = EDGE_LOOP ( 'NONE', ( #246 ) ) ;
#295 = PRODUCT_RELATED_PRODUCT_CATEGORY ( 'detail', '', ( #236 ) ) ;
#296 = DIRECTION ( 'NONE',  ( -3.491481338843133355E-15, 1.224646799147353207E-16, -1.000000000000000000 ) ) ;
#297 = EDGE_LOOP ( 'NONE', ( #240 ) ) ;
#298 = DIRECTION ( 'NONE',  ( -3.491481338843133355E-15, 1.224646799147353207E-16, -1.000000000000000000 ) ) ;
#299 = EDGE_LOOP ( 'NONE', ( #80 ) ) ;
#300 = EDGE_LOOP ( 'NONE', ( #131 ) ) ;
#301 = ORIENTED_EDGE ( 'NONE', *, *, #286, .F. ) ;
#302 = EDGE_CURVE ( 'NONE', #156, #156, #291, .T. ) ;
#303 = DIRECTION ( 'NONE',  ( -4.310979170424707128E-31, -1.000000000000000000, -1.213432761595417562E-16 ) ) ;
ENDSEC;
END-ISO-10303-21;
