ISO-10303-21;
HEADER;
FILE_DESCRIPTION (( 'STEP AP203' ),
    '1' );
FILE_NAME ('63334.step',
    '2021-11-17T10:20:16',
    ( '' ),
    ( '' ),
    'SwSTEP 2.0',
    'SolidWorks 2019',
    '' );
FILE_SCHEMA (( 'CONFIG_CONTROL_DESIGN' ));
ENDSEC;

DATA;
#1 = DIRECTION ( 'NONE',  ( 4.275831445896958607E-31, 1.000000000000000000, 1.224646799147353454E-16 ) ) ;
#2 = FACE_OUTER_BOUND ( 'NONE', #165, .T. ) ;
#3 = AXIS2_PLACEMENT_3D ( 'NONE', #22, #88, #122 ) ;
#4 = DIRECTION ( 'NONE',  ( -4.275831445896959482E-31, -1.000000000000000000, -1.224646799147353454E-16 ) ) ;
#5 = FACE_OUTER_BOUND ( 'NONE', #220, .T. ) ;
#6 = ADVANCED_FACE ( 'NONE', ( #50 ), #184, .T. ) ;
#7 = DIRECTION ( 'NONE',  ( -3.491481338843133355E-15, 1.224646799147353454E-16, -1.000000000000000000 ) ) ;
#8 = CALENDAR_DATE ( 2021, 17, 11 ) ;
#9 = CIRCLE ( 'NONE', #109, 9.799999999999998934 ) ;
#10 = APPROVAL_ROLE ( '' ) ;
#11 = APPROVAL_STATUS ( 'not_yet_approved' ) ;
#12 = PERSON_AND_ORGANIZATION_ROLE ( 'creator' ) ;
#13 = AXIS2_PLACEMENT_3D ( 'NONE', #139, #57, #206 ) ;
#14 = ORIENTED_EDGE ( 'NONE', *, *, #125, .F. ) ;
#15 = PERSON_AND_ORGANIZATION_ROLE ( 'classification_officer' ) ;
#16 = APPLICATION_CONTEXT ( 'configuration controlled 3d designs of mechanical parts and assemblies' ) ;
#17 = APPROVAL_PERSON_ORGANIZATION ( #111, #132, #60 ) ;
#18 = CC_DESIGN_PERSON_AND_ORGANIZATION_ASSIGNMENT ( #92, #159, ( #169 ) ) ;
#19 = CC_DESIGN_APPROVAL ( #39, ( #127 ) ) ;
#20 = FACE_OUTER_BOUND ( 'NONE', #202, .T. ) ;
#21 = DIRECTION ( 'NONE',  ( -3.491481338843133355E-15, 1.224646799147353454E-16, -1.000000000000000000 ) ) ;
#22 = CARTESIAN_POINT ( 'NONE',  ( 3.596225779008427482E-13, -1.261386203121774077E-14, 103.0000000000000142 ) ) ;
#23 = VERTEX_POINT ( 'NONE', #105 ) ;
#24 = APPLICATION_PROTOCOL_DEFINITION ( 'international standard', 'config_control_design', 1994, #31 ) ;
#25 = LOCAL_TIME ( 11, 20, 16.00000000000000000, #124 ) ;
#26 = COORDINATED_UNIVERSAL_TIME_OFFSET ( 1, 0, .AHEAD. ) ;
#27 = PERSON_AND_ORGANIZATION ( #201, #87 ) ;
#28 = PRODUCT_DEFINITION_FORMATION_WITH_SPECIFIED_SOURCE ( 'ANY', '', #51, .NOT_KNOWN. ) ;
#29 = SHAPE_DEFINITION_REPRESENTATION ( #129, #106 ) ;
#30 = ADVANCED_FACE ( 'NONE', ( #69, #42 ), #195, .T. ) ;
#31 = APPLICATION_CONTEXT ( 'configuration controlled 3d designs of mechanical parts and assemblies' ) ;
#32 = PERSON_AND_ORGANIZATION ( #201, #87 ) ;
#33 = CARTESIAN_POINT ( 'NONE',  ( 1.396592535537253342E-13, 7.498798913309283660E-32, 40.00000000000000000 ) ) ;
#34 = ORIENTED_EDGE ( 'NONE', *, *, #204, .F. ) ;
#35 = CLOSED_SHELL ( 'NONE', ( #180, #162, #177, #70 ) ) ;
#36 = AXIS2_PLACEMENT_3D ( 'NONE', #74, #187, #38 ) ;
#37 = CYLINDRICAL_SURFACE ( 'NONE', #183, 10.00000000000000000 ) ;
#38 = DIRECTION ( 'NONE',  ( 0.0000000000000000000, 1.000000000000000000, 0.0000000000000000000 ) ) ;
#39 = APPROVAL ( #82, 'UNSPECIFIED' ) ;
#40 = DIRECTION ( 'NONE',  ( 0.0000000000000000000, 1.000000000000000000, 0.0000000000000000000 ) ) ;
#41 = APPROVAL_PERSON_ORGANIZATION ( #27, #194, #10 ) ;
#42 = FACE_OUTER_BOUND ( 'NONE', #203, .T. ) ;
#43 = FACE_OUTER_BOUND ( 'NONE', #95, .T. ) ;
#44 =( LENGTH_UNIT ( ) NAMED_UNIT ( * ) SI_UNIT ( .MILLI., .METRE. ) );
#45 = PERSON_AND_ORGANIZATION ( #201, #87 ) ;
#46 = CALENDAR_DATE ( 2021, 17, 11 ) ;
#47 = CALENDAR_DATE ( 2021, 17, 11 ) ;
#48 = DATE_AND_TIME ( #46, #115 ) ;
#49 = EDGE_LOOP ( 'NONE', ( #14 ) ) ;
#50 = FACE_OUTER_BOUND ( 'NONE', #49, .T. ) ;
#51 = PRODUCT ( '63334', '63334', '', ( #93 ) ) ;
#52 = DIRECTION ( 'NONE',  ( 4.275831445896959482E-31, 1.000000000000000000, 1.224646799147353454E-16 ) ) ;
#53 = CC_DESIGN_SECURITY_CLASSIFICATION ( #127, ( #28 ) ) ;
#54 = FACE_OUTER_BOUND ( 'NONE', #222, .T. ) ;
#55 = CC_DESIGN_PERSON_AND_ORGANIZATION_ASSIGNMENT ( #218, #12, ( #28 ) ) ;
#56 = CARTESIAN_POINT ( 'NONE',  ( 0.0000000000000000000, 0.0000000000000000000, 0.0000000000000000000 ) ) ;
#57 = DIRECTION ( 'NONE',  ( -3.491481338843133355E-15, 1.224646799147353454E-16, -1.000000000000000000 ) ) ;
#58 = CC_DESIGN_PERSON_AND_ORGANIZATION_ASSIGNMENT ( #45, #160, ( #51 ) ) ;
#59 = VERTEX_POINT ( 'NONE', #189 ) ;
#60 = APPROVAL_ROLE ( '' ) ;
#61 = AXIS2_PLACEMENT_3D ( 'NONE', #170, #86, #4 ) ;
#62 = AXIS2_PLACEMENT_3D ( 'NONE', #123, #7, #40 ) ;
#63 = PERSON_AND_ORGANIZATION ( #201, #87 ) ;
#64 = ORIENTED_EDGE ( 'NONE', *, *, #104, .F. ) ;
#65 = MANIFOLD_SOLID_BREP ( 'Corps-Déplacer/Copier1[2]', #99 ) ;
#66 = AXIS2_PLACEMENT_3D ( 'NONE', #173, #191, #205 ) ;
#67 = ORIENTED_EDGE ( 'NONE', *, *, #217, .T. ) ;
#68 = CIRCLE ( 'NONE', #62, 10.00000000000000000 ) ;
#69 = FACE_BOUND ( 'NONE', #134, .T. ) ;
#70 = ADVANCED_FACE ( 'NONE', ( #43 ), #151, .F. ) ;
#71 = DIRECTION ( 'NONE',  ( -3.491481338843133355E-15, 1.224646799147353454E-16, -1.000000000000000000 ) ) ;
#72 = AXIS2_PLACEMENT_3D ( 'NONE', #168, #174, #52 ) ;
#73 = CARTESIAN_POINT ( 'NONE',  ( -4.167288764085502770E-30, 1.453656063335171267E-31, -1.193558939503394514E-15 ) ) ;
#74 = CARTESIAN_POINT ( 'NONE',  ( 1.396592535537253342E-13, -4.898587196589413815E-15, 40.00000000000000000 ) ) ;
#75 = CARTESIAN_POINT ( 'NONE',  ( 0.0000000000000000000, 0.0000000000000000000, 0.0000000000000000000 ) ) ;
#76 = UNCERTAINTY_MEASURE_WITH_UNIT (LENGTH_MEASURE( 1.000000000000000082E-05 ), #44, 'distance_accuracy_value', 'NONE');
#77 =( NAMED_UNIT ( * ) PLANE_ANGLE_UNIT ( ) SI_UNIT ( $, .RADIAN. ) );
#78 = CALENDAR_DATE ( 2021, 17, 11 ) ;
#79 = CC_DESIGN_DATE_AND_TIME_ASSIGNMENT ( #48, #84, ( #127 ) ) ;
#80 = PERSON_AND_ORGANIZATION_ROLE ( 'design_supplier' ) ;
#81 = EDGE_LOOP ( 'NONE', ( #97 ) ) ;
#82 = APPROVAL_STATUS ( 'not_yet_approved' ) ;
#83 = COORDINATED_UNIVERSAL_TIME_OFFSET ( 1, 0, .AHEAD. ) ;
#84 = DATE_TIME_ROLE ( 'classification_date' ) ;
#85 = DIRECTION ( 'NONE',  ( -3.491481338843133355E-15, 1.224646799147353454E-16, -1.000000000000000000 ) ) ;
#86 = DIRECTION ( 'NONE',  ( 3.491481338843133355E-15, -1.224646799147353454E-16, 1.000000000000000000 ) ) ;
#87 = ORGANIZATION ( 'UNSPECIFIED', 'UNSPECIFIED', '' ) ;
#88 = DIRECTION ( 'NONE',  ( -3.491481338843133355E-15, 1.224646799147353454E-16, -1.000000000000000000 ) ) ;
#89 = VERTEX_POINT ( 'NONE', #155 ) ;
#90 = DATE_AND_TIME ( #8, #25 ) ;
#91 = CC_DESIGN_DATE_AND_TIME_ASSIGNMENT ( #197, #178, ( #169 ) ) ;
#92 = PERSON_AND_ORGANIZATION ( #201, #87 ) ;
#93 = MECHANICAL_CONTEXT ( 'NONE', #16, 'mechanical' ) ;
#94 = AXIS2_PLACEMENT_3D ( 'NONE', #121, #188, #102 ) ;
#95 = EDGE_LOOP ( 'NONE', ( #116 ) ) ;
#96 =( GEOMETRIC_REPRESENTATION_CONTEXT ( 3 ) GLOBAL_UNCERTAINTY_ASSIGNED_CONTEXT ( ( #76 ) ) GLOBAL_UNIT_ASSIGNED_CONTEXT ( ( #44, #77, #148 ) ) REPRESENTATION_CONTEXT ( 'NONE', 'WORKASPACE' ) );
#97 = ORIENTED_EDGE ( 'NONE', *, *, #212, .T. ) ;
#98 = DIRECTION ( 'NONE',  ( 3.491481338843133355E-15, -1.224646799147353454E-16, 1.000000000000000000 ) ) ;
#99 = CLOSED_SHELL ( 'NONE', ( #130, #6, #30, #136 ) ) ;
#100 = FACE_OUTER_BOUND ( 'NONE', #216, .T. ) ;
#101 = PLANE ( 'NONE',  #61 ) ;
#102 = DIRECTION ( 'NONE',  ( 0.0000000000000000000, 1.000000000000000000, 0.0000000000000000000 ) ) ;
#103 = CIRCLE ( 'NONE', #36, 10.00000000000000000 ) ;
#104 = EDGE_CURVE ( 'NONE', #59, #59, #103, .T. ) ;
#105 = CARTESIAN_POINT ( 'NONE',  ( 1.396592535537253342E-13, 9.999999999999994671, 40.00000000000000000 ) ) ;
#106 = ADVANCED_BREP_SHAPE_REPRESENTATION ( '63334', ( #135, #65, #182 ), #96 ) ;
#107 = DIRECTION ( 'NONE',  ( 3.491481338843133355E-15, -1.217917285207545432E-16, 1.000000000000000000 ) ) ;
#108 = CARTESIAN_POINT ( 'NONE',  ( 3.631140592396858689E-13, 8.999999999999987566, 104.0000000000000000 ) ) ;
#109 = AXIS2_PLACEMENT_3D ( 'NONE', #73, #209, #207 ) ;
#110 = CARTESIAN_POINT ( 'NONE',  ( 0.0000000000000000000, 0.0000000000000000000, 0.0000000000000000000 ) ) ;
#111 = PERSON_AND_ORGANIZATION ( #201, #87 ) ;
#112 = APPROVAL_DATE_TIME ( #161, #194 ) ;
#113 = LOCAL_TIME ( 11, 20, 16.00000000000000000, #83 ) ;
#114 = CC_DESIGN_PERSON_AND_ORGANIZATION_ASSIGNMENT ( #63, #15, ( #127 ) ) ;
#115 = LOCAL_TIME ( 11, 20, 16.00000000000000000, #128 ) ;
#116 = ORIENTED_EDGE ( 'NONE', *, *, #212, .F. ) ;
#117 = ORIENTED_EDGE ( 'NONE', *, *, #156, .F. ) ;
#118 = PLANE ( 'NONE',  #167 ) ;
#119 = AXIS2_PLACEMENT_3D ( 'NONE', #154, #107, #152 ) ;
#120 = DIRECTION ( 'NONE',  ( 4.275831445896959482E-31, 1.000000000000000000, 1.224646799147353454E-16 ) ) ;
#121 = CARTESIAN_POINT ( 'NONE',  ( 3.631140592396858689E-13, -1.273632671113247592E-14, 104.0000000000000000 ) ) ;
#122 = DIRECTION ( 'NONE',  ( 0.0000000000000000000, 1.000000000000000000, 0.0000000000000000000 ) ) ;
#123 = CARTESIAN_POINT ( 'NONE',  ( 1.396592535537253342E-13, -4.898587196589413815E-15, 40.00000000000000000 ) ) ;
#124 = COORDINATED_UNIVERSAL_TIME_OFFSET ( 1, 0, .AHEAD. ) ;
#125 = EDGE_CURVE ( 'NONE', #23, #23, #68, .T. ) ;
#126 = DESIGN_CONTEXT ( 'detailed design', #31, 'design' ) ;
#127 = SECURITY_CLASSIFICATION ( '', '', #146 ) ;
#128 = COORDINATED_UNIVERSAL_TIME_OFFSET ( 1, 0, .AHEAD. ) ;
#129 = PRODUCT_DEFINITION_SHAPE ( 'NONE', 'NONE',  #169 ) ;
#130 = ADVANCED_FACE ( 'NONE', ( #140, #5 ), #37, .T. ) ;
#131 = APPROVAL_STATUS ( 'not_yet_approved' ) ;
#132 = APPROVAL ( #11, 'UNSPECIFIED' ) ;
#133 = APPROVAL_ROLE ( '' ) ;
#134 = EDGE_LOOP ( 'NONE', ( #149 ) ) ;
#135 = MANIFOLD_SOLID_BREP ( 'Corps-Déplacer/Copier1[1]', #35 ) ;
#136 = ADVANCED_FACE ( 'NONE', ( #20 ), #118, .T. ) ;
#137 = EDGE_LOOP ( 'NONE', ( #64 ) ) ;
#138 = FACE_BOUND ( 'NONE', #81, .T. ) ;
#139 = CARTESIAN_POINT ( 'NONE',  ( 3.596225779008427482E-13, -1.261386203121774077E-14, 103.0000000000000142 ) ) ;
#140 = FACE_OUTER_BOUND ( 'NONE', #181, .T. ) ;
#141 = CARTESIAN_POINT ( 'NONE',  ( -2.137915722948479478E-30, 7.498798913309291323E-32, -6.123233995736767268E-16 ) ) ;
#142 = VERTEX_POINT ( 'NONE', #176 ) ;
#143 = VERTEX_POINT ( 'NONE', #108 ) ;
#144 = CALENDAR_DATE ( 2021, 17, 11 ) ;
#145 = CONICAL_SURFACE ( 'NONE', #13, 9.999999999999998224, 0.7853981633974543852 ) ;
#146 = SECURITY_CLASSIFICATION_LEVEL ( 'unclassified' ) ;
#147 = ORIENTED_EDGE ( 'NONE', *, *, #217, .F. ) ;
#148 =( NAMED_UNIT ( * ) SI_UNIT ( $, .STERADIAN. ) SOLID_ANGLE_UNIT ( ) );
#149 = ORIENTED_EDGE ( 'NONE', *, *, #204, .T. ) ;
#150 = LOCAL_TIME ( 11, 20, 16.00000000000000000, #26 ) ;
#151 = PLANE ( 'NONE',  #72 ) ;
#152 = DIRECTION ( 'NONE',  ( -4.237045877651918877E-31, -1.000000000000000000, -1.219727444046192488E-16 ) ) ;
#153 = CC_DESIGN_PERSON_AND_ORGANIZATION_ASSIGNMENT ( #213, #80, ( #28 ) ) ;
#154 = CARTESIAN_POINT ( 'NONE',  ( 6.982962677686234170E-16, -2.435834570415079525E-17, 0.1999999999999990674 ) ) ;
#155 = CARTESIAN_POINT ( 'NONE',  ( 6.982962677686191769E-16, -10.00000000000000000, 0.1999999999999978462 ) ) ;
#156 = EDGE_CURVE ( 'NONE', #89, #89, #179, .T. ) ;
#157 = APPLICATION_PROTOCOL_DEFINITION ( 'international standard', 'config_control_design', 1994, #16 ) ;
#158 = AXIS2_PLACEMENT_3D ( 'NONE', #33, #98, #166 ) ;
#159 = PERSON_AND_ORGANIZATION_ROLE ( 'creator' ) ;
#160 = PERSON_AND_ORGANIZATION_ROLE ( 'design_owner' ) ;
#161 = DATE_AND_TIME ( #144, #150 ) ;
#162 = ADVANCED_FACE ( 'NONE', ( #2, #186 ), #171, .T. ) ;
#163 = CIRCLE ( 'NONE', #94, 9.000000000000000000 ) ;
#164 = ORIENTED_EDGE ( 'NONE', *, *, #104, .T. ) ;
#165 = EDGE_LOOP ( 'NONE', ( #67 ) ) ;
#166 = DIRECTION ( 'NONE',  ( -4.275831445896959482E-31, -1.000000000000000000, -1.224646799147353454E-16 ) ) ;
#167 = AXIS2_PLACEMENT_3D ( 'NONE', #141, #21, #120 ) ;
#168 = CARTESIAN_POINT ( 'NONE',  ( 3.631140592396858689E-13, 6.748919021978343909E-32, 104.0000000000000000 ) ) ;
#169 = PRODUCT_DEFINITION ( 'UNKNOWN', '', #28, #126 ) ;
#170 = CARTESIAN_POINT ( 'NONE',  ( 1.396592535537253342E-13, 7.498798913309283660E-32, 40.00000000000000000 ) ) ;
#171 = CYLINDRICAL_SURFACE ( 'NONE', #172, 9.999999999999998224 ) ;
#172 = AXIS2_PLACEMENT_3D ( 'NONE', #75, #85, #1 ) ;
#173 = CARTESIAN_POINT ( 'NONE',  ( 6.982962677686234170E-16, -2.435834570415079525E-17, 0.1999999999999990674 ) ) ;
#174 = DIRECTION ( 'NONE',  ( -3.491481338843133355E-15, 1.224646799147353454E-16, -1.000000000000000000 ) ) ;
#175 = CARTESIAN_POINT ( 'NONE',  ( 3.596225779008427482E-13, 9.999999999999985789, 103.0000000000000142 ) ) ;
#176 = CARTESIAN_POINT ( 'NONE',  ( -8.334577528171004140E-30, -9.799999999999998934, -2.387117879006789028E-15 ) ) ;
#177 = ADVANCED_FACE ( 'NONE', ( #138, #100 ), #145, .T. ) ;
#178 = DATE_TIME_ROLE ( 'creation_date' ) ;
#179 = CIRCLE ( 'NONE', #119, 10.00000000000000000 ) ;
#180 = ADVANCED_FACE ( 'NONE', ( #54 ), #101, .F. ) ;
#181 = EDGE_LOOP ( 'NONE', ( #185 ) ) ;
#182 = AXIS2_PLACEMENT_3D ( 'NONE', #110, #198, #196 ) ;
#183 = AXIS2_PLACEMENT_3D ( 'NONE', #56, #71, #208 ) ;
#184 = PLANE ( 'NONE',  #158 ) ;
#185 = ORIENTED_EDGE ( 'NONE', *, *, #125, .T. ) ;
#186 = FACE_OUTER_BOUND ( 'NONE', #137, .T. ) ;
#187 = DIRECTION ( 'NONE',  ( -3.491481338843133355E-15, 1.224646799147353454E-16, -1.000000000000000000 ) ) ;
#188 = DIRECTION ( 'NONE',  ( -3.491481338843133355E-15, 1.224646799147353454E-16, -1.000000000000000000 ) ) ;
#189 = CARTESIAN_POINT ( 'NONE',  ( 1.396592535537253342E-13, 9.999999999999994671, 40.00000000000000000 ) ) ;
#190 = CIRCLE ( 'NONE', #3, 9.999999999999998224 ) ;
#191 = DIRECTION ( 'NONE',  ( 3.491481338843133355E-15, -1.217917285207545432E-16, 1.000000000000000000 ) ) ;
#192 = APPROVAL_DATE_TIME ( #90, #132 ) ;
#193 = VERTEX_POINT ( 'NONE', #175 ) ;
#194 = APPROVAL ( #131, 'UNSPECIFIED' ) ;
#195 = CONICAL_SURFACE ( 'NONE', #66, 10.00000000000000000, 0.7853981633974489451 ) ;
#196 = DIRECTION ( 'NONE',  ( 1.000000000000000000, 0.0000000000000000000, 0.0000000000000000000 ) ) ;
#197 = DATE_AND_TIME ( #78, #223 ) ;
#198 = DIRECTION ( 'NONE',  ( 0.0000000000000000000, 0.0000000000000000000, 1.000000000000000000 ) ) ;
#199 = APPROVAL_PERSON_ORGANIZATION ( #32, #39, #133 ) ;
#200 = DATE_AND_TIME ( #47, #113 ) ;
#201 = PERSON ( 'UNSPECIFIED', 'UNSPECIFIED', 'UNSPECIFIED', ('UNSPECIFIED'), ('UNSPECIFIED'), ('UNSPECIFIED') ) ;
#202 = EDGE_LOOP ( 'NONE', ( #34 ) ) ;
#203 = EDGE_LOOP ( 'NONE', ( #117 ) ) ;
#204 = EDGE_CURVE ( 'NONE', #142, #142, #9, .T. ) ;
#205 = DIRECTION ( 'NONE',  ( -4.237045877651918877E-31, -1.000000000000000000, -1.219727444046192488E-16 ) ) ;
#206 = DIRECTION ( 'NONE',  ( 0.0000000000000000000, 1.000000000000000000, 0.0000000000000000000 ) ) ;
#207 = DIRECTION ( 'NONE',  ( -4.252335473556634944E-31, -1.000000000000000000, -1.217917285207545432E-16 ) ) ;
#208 = DIRECTION ( 'NONE',  ( 4.275831445896958607E-31, 1.000000000000000000, 1.224646799147353454E-16 ) ) ;
#209 = DIRECTION ( 'NONE',  ( 3.491481338843133355E-15, -1.217917285207545432E-16, 1.000000000000000000 ) ) ;
#210 = CC_DESIGN_APPROVAL ( #194, ( #28 ) ) ;
#211 = COORDINATED_UNIVERSAL_TIME_OFFSET ( 1, 0, .AHEAD. ) ;
#212 = EDGE_CURVE ( 'NONE', #143, #143, #163, .T. ) ;
#213 = PERSON_AND_ORGANIZATION ( #201, #87 ) ;
#214 = CC_DESIGN_APPROVAL ( #132, ( #169 ) ) ;
#215 = ORIENTED_EDGE ( 'NONE', *, *, #156, .T. ) ;
#216 = EDGE_LOOP ( 'NONE', ( #147 ) ) ;
#217 = EDGE_CURVE ( 'NONE', #193, #193, #190, .T. ) ;
#218 = PERSON_AND_ORGANIZATION ( #201, #87 ) ;
#219 = APPROVAL_DATE_TIME ( #200, #39 ) ;
#220 = EDGE_LOOP ( 'NONE', ( #215 ) ) ;
#221 = PRODUCT_RELATED_PRODUCT_CATEGORY ( 'detail', '', ( #51 ) ) ;
#222 = EDGE_LOOP ( 'NONE', ( #164 ) ) ;
#223 = LOCAL_TIME ( 11, 20, 16.00000000000000000, #211 ) ;
ENDSEC;
END-ISO-10303-21;
