ISO-10303-21;
HEADER;
FILE_DESCRIPTION (( 'STEP AP203' ),
    '1' );
FILE_NAME ('63333.step',
    '2021-11-17T10:20:15',
    ( '' ),
    ( '' ),
    'SwSTEP 2.0',
    'SolidWorks 2019',
    '' );
FILE_SCHEMA (( 'CONFIG_CONTROL_DESIGN' ));
ENDSEC;

DATA;
#1 = APPROVAL ( #22, 'UNSPECIFIED' ) ;
#2 = CARTESIAN_POINT ( 'NONE',  ( -1.710332578358783092E-30, 5.999039130647430431E-32, -4.898587196589412829E-16 ) ) ;
#3 = CARTESIAN_POINT ( 'NONE',  ( 1.256933281983528008E-13, 7.999999999999996447, 36.00000000000000000 ) ) ;
#4 = CARTESIAN_POINT ( 'NONE',  ( 3.491481338843133355E-13, 6.999999999999988454, 100.0000000000000000 ) ) ;
#5 = AXIS2_PLACEMENT_3D ( 'NONE', #2, #141, #137 ) ;
#6 = PLANE ( 'NONE',  #21 ) ;
#7 = DIRECTION ( 'NONE',  ( 4.275831445896958607E-31, 1.000000000000000000, 1.224646799147353207E-16 ) ) ;
#8 = CC_DESIGN_PERSON_AND_ORGANIZATION_ASSIGNMENT ( #19, #154, ( #194 ) ) ;
#9 = VERTEX_POINT ( 'NONE', #81 ) ;
#10 = AXIS2_PLACEMENT_3D ( 'NONE', #152, #210, #87 ) ;
#11 = ORIENTED_EDGE ( 'NONE', *, *, #46, .T. ) ;
#12 = PLANE ( 'NONE',  #182 ) ;
#13 = DIRECTION ( 'NONE',  ( 3.491481338843133355E-15, -1.224646799147353207E-16, 1.000000000000000000 ) ) ;
#14 = CIRCLE ( 'NONE', #162, 8.000000000000001776 ) ;
#15 = CC_DESIGN_APPROVAL ( #36, ( #196 ) ) ;
#16 = PRODUCT_RELATED_PRODUCT_CATEGORY ( 'detail', '', ( #140 ) ) ;
#17 = ORIENTED_EDGE ( 'NONE', *, *, #105, .T. ) ;
#18 = CARTESIAN_POINT ( 'NONE',  ( 3.456566525454702148E-13, -1.212400331155879702E-14, 99.00000000000000000 ) ) ;
#19 = PERSON_AND_ORGANIZATION ( #26, #149 ) ;
#20 = DIRECTION ( 'NONE',  ( -3.491481338843133355E-15, 1.224646799147353207E-16, -1.000000000000000000 ) ) ;
#21 = AXIS2_PLACEMENT_3D ( 'NONE', #127, #94, #160 ) ;
#22 = APPROVAL_STATUS ( 'not_yet_approved' ) ;
#23 = CARTESIAN_POINT ( 'NONE',  ( 3.491481338843133355E-13, 5.249159239316484111E-32, 100.0000000000000000 ) ) ;
#24 = CIRCLE ( 'NONE', #158, 8.000000000000001776 ) ;
#25 = FACE_OUTER_BOUND ( 'NONE', #73, .T. ) ;
#26 = PERSON ( 'UNSPECIFIED', 'UNSPECIFIED', 'UNSPECIFIED', ('UNSPECIFIED'), ('UNSPECIFIED'), ('UNSPECIFIED') ) ;
#27 = ADVANCED_FACE ( 'NONE', ( #206 ), #12, .T. ) ;
#28 = CC_DESIGN_PERSON_AND_ORGANIZATION_ASSIGNMENT ( #175, #62, ( #64 ) ) ;
#29 = VERTEX_POINT ( 'NONE', #3 ) ;
#30 = ADVANCED_BREP_SHAPE_REPRESENTATION ( '63333', ( #124, #133, #167 ), #135 ) ;
#31 = CARTESIAN_POINT ( 'NONE',  ( 3.491481338843133355E-13, -1.224646799147353217E-14, 100.0000000000000000 ) ) ;
#32 = ADVANCED_FACE ( 'NONE', ( #147 ), #132, .F. ) ;
#33 = APPROVAL_PERSON_ORGANIZATION ( #100, #143, #223 ) ;
#34 = ORIENTED_EDGE ( 'NONE', *, *, #74, .T. ) ;
#35 = CARTESIAN_POINT ( 'NONE',  ( 1.256933281983528008E-13, 5.999039130647424958E-32, 36.00000000000000000 ) ) ;
#36 = APPROVAL ( #113, 'UNSPECIFIED' ) ;
#37 = EDGE_LOOP ( 'NONE', ( #168 ) ) ;
#38 = COORDINATED_UNIVERSAL_TIME_OFFSET ( 1, 0, .AHEAD. ) ;
#39 = LOCAL_TIME ( 11, 20, 15.00000000000000000, #76 ) ;
#40 = APPLICATION_CONTEXT ( 'configuration controlled 3d designs of mechanical parts and assemblies' ) ;
#41 = AXIS2_PLACEMENT_3D ( 'NONE', #31, #163, #125 ) ;
#42 = ORIENTED_EDGE ( 'NONE', *, *, #205, .F. ) ;
#43 = APPROVAL_STATUS ( 'not_yet_approved' ) ;
#44 = DATE_TIME_ROLE ( 'creation_date' ) ;
#45 = DIRECTION ( 'NONE',  ( 0.0000000000000000000, 1.000000000000000000, 0.0000000000000000000 ) ) ;
#46 = EDGE_CURVE ( 'NONE', #9, #9, #14, .T. ) ;
#47 = DIRECTION ( 'NONE',  ( 4.275831445896958607E-31, 1.000000000000000000, 1.224646799147353207E-16 ) ) ;
#48 = LOCAL_TIME ( 11, 20, 15.00000000000000000, #198 ) ;
#49 = PRODUCT_DEFINITION_SHAPE ( 'NONE', 'NONE',  #196 ) ;
#50 = CARTESIAN_POINT ( 'NONE',  ( 6.982962677686217407E-16, -8.000000000000000000, 0.1999999999999985678 ) ) ;
#51 = DIRECTION ( 'NONE',  ( -3.491481338843133355E-15, 1.224646799147353207E-16, -1.000000000000000000 ) ) ;
#52 = APPLICATION_CONTEXT ( 'configuration controlled 3d designs of mechanical parts and assemblies' ) ;
#53 = DATE_AND_TIME ( #211, #144 ) ;
#54 = ADVANCED_FACE ( 'NONE', ( #91, #116 ), #148, .T. ) ;
#55 = EDGE_LOOP ( 'NONE', ( #172 ) ) ;
#56 = APPROVAL_PERSON_ORGANIZATION ( #150, #36, #177 ) ;
#57 = CC_DESIGN_PERSON_AND_ORGANIZATION_ASSIGNMENT ( #60, #102, ( #196 ) ) ;
#58 = SECURITY_CLASSIFICATION_LEVEL ( 'unclassified' ) ;
#59 = DIRECTION ( 'NONE',  ( -3.491481338843133355E-15, 1.224646799147353207E-16, -1.000000000000000000 ) ) ;
#60 = PERSON_AND_ORGANIZATION ( #26, #149 ) ;
#61 = FACE_BOUND ( 'NONE', #98, .T. ) ;
#62 = PERSON_AND_ORGANIZATION_ROLE ( 'design_supplier' ) ;
#63 = FACE_OUTER_BOUND ( 'NONE', #37, .T. ) ;
#64 = PRODUCT_DEFINITION_FORMATION_WITH_SPECIFIED_SOURCE ( 'ANY', '', #140, .NOT_KNOWN. ) ;
#65 = DIRECTION ( 'NONE',  ( -3.491481338843133355E-15, 1.224646799147353207E-16, -1.000000000000000000 ) ) ;
#66 = CARTESIAN_POINT ( 'NONE',  ( -6.633643338748349461E-30, -7.799999999999998046, -1.899950964923770658E-15 ) ) ;
#67 = LOCAL_TIME ( 11, 20, 15.00000000000000000, #99 ) ;
#68 = DIRECTION ( 'NONE',  ( -3.491481338843133355E-15, 1.224646799147353207E-16, -1.000000000000000000 ) ) ;
#69 = CYLINDRICAL_SURFACE ( 'NONE', #71, 8.000000000000001776 ) ;
#70 = DIRECTION ( 'NONE',  ( 1.000000000000000000, 0.0000000000000000000, 0.0000000000000000000 ) ) ;
#71 = AXIS2_PLACEMENT_3D ( 'NONE', #184, #51, #7 ) ;
#72 = ORIENTED_EDGE ( 'NONE', *, *, #190, .F. ) ;
#73 = EDGE_LOOP ( 'NONE', ( #193 ) ) ;
#74 = EDGE_CURVE ( 'NONE', #181, #181, #118, .T. ) ;
#75 = CALENDAR_DATE ( 2021, 17, 11 ) ;
#76 = COORDINATED_UNIVERSAL_TIME_OFFSET ( 1, 0, .AHEAD. ) ;
#77 = AXIS2_PLACEMENT_3D ( 'NONE', #104, #59, #79 ) ;
#78 = CARTESIAN_POINT ( 'NONE',  ( 6.982962677686250933E-16, -2.435834570415085380E-17, 0.1999999999999995393 ) ) ;
#79 = DIRECTION ( 'NONE',  ( 0.0000000000000000000, 1.000000000000000000, 0.0000000000000000000 ) ) ;
#80 =( NAMED_UNIT ( * ) SI_UNIT ( $, .STERADIAN. ) SOLID_ANGLE_UNIT ( ) );
#81 = CARTESIAN_POINT ( 'NONE',  ( 3.456566525454702148E-13, 7.999999999999989342, 99.00000000000000000 ) ) ;
#82 =( LENGTH_UNIT ( ) NAMED_UNIT ( * ) SI_UNIT ( .MILLI., .METRE. ) );
#83 = VERTEX_POINT ( 'NONE', #66 ) ;
#84 = ORIENTED_EDGE ( 'NONE', *, *, #190, .T. ) ;
#85 = DIRECTION ( 'NONE',  ( -4.275831445896958607E-31, -1.000000000000000000, -1.224646799147353207E-16 ) ) ;
#86 = ORIENTED_EDGE ( 'NONE', *, *, #199, .T. ) ;
#87 = DIRECTION ( 'NONE',  ( -4.212971753347078429E-31, -1.000000000000000000, -1.219727444046192488E-16 ) ) ;
#88 = APPROVAL_DATE_TIME ( #112, #36 ) ;
#89 = AXIS2_PLACEMENT_3D ( 'NONE', #23, #156, #47 ) ;
#90 = CONICAL_SURFACE ( 'NONE', #119, 8.000000000000001776, 0.7853981633974482790 ) ;
#91 = FACE_BOUND ( 'NONE', #171, .T. ) ;
#92 =( NAMED_UNIT ( * ) PLANE_ANGLE_UNIT ( ) SI_UNIT ( $, .RADIAN. ) );
#93 = DIRECTION ( 'NONE',  ( -4.252335473556634944E-31, -1.000000000000000000, -1.217917285207545679E-16 ) ) ;
#94 = DIRECTION ( 'NONE',  ( 3.491481338843133355E-15, -1.224646799147353207E-16, 1.000000000000000000 ) ) ;
#95 = AXIS2_PLACEMENT_3D ( 'NONE', #164, #68, #165 ) ;
#96 = EDGE_LOOP ( 'NONE', ( #11 ) ) ;
#97 = EDGE_LOOP ( 'NONE', ( #204 ) ) ;
#98 = EDGE_LOOP ( 'NONE', ( #84 ) ) ;
#99 = COORDINATED_UNIVERSAL_TIME_OFFSET ( 1, 0, .AHEAD. ) ;
#100 = PERSON_AND_ORGANIZATION ( #26, #149 ) ;
#101 = CARTESIAN_POINT ( 'NONE',  ( 3.456566525454702148E-13, -1.212400331155879702E-14, 99.00000000000000000 ) ) ;
#102 = PERSON_AND_ORGANIZATION_ROLE ( 'creator' ) ;
#103 = CC_DESIGN_SECURITY_CLASSIFICATION ( #194, ( #64 ) ) ;
#104 = CARTESIAN_POINT ( 'NONE',  ( 1.256933281983528008E-13, -4.408728476930470856E-15, 36.00000000000000000 ) ) ;
#105 = EDGE_CURVE ( 'NONE', #202, #202, #218, .T. ) ;
#106 = LOCAL_TIME ( 11, 20, 15.00000000000000000, #38 ) ;
#107 = DIRECTION ( 'NONE',  ( 0.0000000000000000000, 1.000000000000000000, 0.0000000000000000000 ) ) ;
#108 = ADVANCED_FACE ( 'NONE', ( #222 ), #178, .T. ) ;
#109 = FACE_OUTER_BOUND ( 'NONE', #191, .T. ) ;
#110 = CYLINDRICAL_SURFACE ( 'NONE', #95, 8.000000000000000000 ) ;
#111 = AXIS2_PLACEMENT_3D ( 'NONE', #213, #216, #93 ) ;
#112 = DATE_AND_TIME ( #129, #106 ) ;
#113 = APPROVAL_STATUS ( 'not_yet_approved' ) ;
#114 = FACE_OUTER_BOUND ( 'NONE', #97, .T. ) ;
#115 = DATE_TIME_ROLE ( 'classification_date' ) ;
#116 = FACE_OUTER_BOUND ( 'NONE', #186, .T. ) ;
#117 = ADVANCED_FACE ( 'NONE', ( #61, #114 ), #90, .T. ) ;
#118 = CIRCLE ( 'NONE', #77, 8.000000000000001776 ) ;
#119 = AXIS2_PLACEMENT_3D ( 'NONE', #101, #20, #212 ) ;
#120 = CARTESIAN_POINT ( 'NONE',  ( 1.256933281983528008E-13, 7.999999999999996447, 36.00000000000000000 ) ) ;
#121 = CLOSED_SHELL ( 'NONE', ( #207, #201, #117, #32 ) ) ;
#122 = CIRCLE ( 'NONE', #41, 7.000000000000000888 ) ;
#123 = DIRECTION ( 'NONE',  ( 0.0000000000000000000, 0.0000000000000000000, 1.000000000000000000 ) ) ;
#124 = MANIFOLD_SOLID_BREP ( 'Corps-Déplacer/Copier1[1]', #121 ) ;
#125 = DIRECTION ( 'NONE',  ( 0.0000000000000000000, 1.000000000000000000, 0.0000000000000000000 ) ) ;
#126 = DESIGN_CONTEXT ( 'detailed design', #52, 'design' ) ;
#127 = CARTESIAN_POINT ( 'NONE',  ( 1.256933281983528008E-13, 5.999039130647424958E-32, 36.00000000000000000 ) ) ;
#128 = APPROVAL_DATE_TIME ( #192, #143 ) ;
#129 = CALENDAR_DATE ( 2021, 17, 11 ) ;
#130 = EDGE_LOOP ( 'NONE', ( #17 ) ) ;
#131 = UNCERTAINTY_MEASURE_WITH_UNIT (LENGTH_MEASURE( 1.000000000000000082E-05 ), #82, 'distance_accuracy_value', 'NONE');
#132 = PLANE ( 'NONE',  #89 ) ;
#133 = MANIFOLD_SOLID_BREP ( 'Corps-Déplacer/Copier1[2]', #187 ) ;
#134 = CALENDAR_DATE ( 2021, 17, 11 ) ;
#135 =( GEOMETRIC_REPRESENTATION_CONTEXT ( 3 ) GLOBAL_UNCERTAINTY_ASSIGNED_CONTEXT ( ( #131 ) ) GLOBAL_UNIT_ASSIGNED_CONTEXT ( ( #82, #92, #80 ) ) REPRESENTATION_CONTEXT ( 'NONE', 'WORKASPACE' ) );
#136 = PERSON_AND_ORGANIZATION ( #26, #149 ) ;
#137 = DIRECTION ( 'NONE',  ( 4.275831445896958607E-31, 1.000000000000000000, 1.224646799147353207E-16 ) ) ;
#138 = COORDINATED_UNIVERSAL_TIME_OFFSET ( 1, 0, .AHEAD. ) ;
#139 = DIRECTION ( 'NONE',  ( -4.212971753347078429E-31, -1.000000000000000000, -1.219727444046192488E-16 ) ) ;
#140 = PRODUCT ( '63333', '63333', '', ( #214 ) ) ;
#141 = DIRECTION ( 'NONE',  ( -3.491481338843133355E-15, 1.224646799147353207E-16, -1.000000000000000000 ) ) ;
#142 = APPLICATION_PROTOCOL_DEFINITION ( 'international standard', 'config_control_design', 1994, #40 ) ;
#143 = APPROVAL ( #43, 'UNSPECIFIED' ) ;
#144 = LOCAL_TIME ( 11, 20, 15.00000000000000000, #138 ) ;
#145 = PERSON_AND_ORGANIZATION_ROLE ( 'creator' ) ;
#146 = EDGE_LOOP ( 'NONE', ( #42 ) ) ;
#147 = FACE_OUTER_BOUND ( 'NONE', #169, .T. ) ;
#148 = CONICAL_SURFACE ( 'NONE', #180, 8.000000000000000000, 0.7853981633974528309 ) ;
#149 = ORGANIZATION ( 'UNSPECIFIED', 'UNSPECIFIED', '' ) ;
#150 = PERSON_AND_ORGANIZATION ( #26, #149 ) ;
#151 = APPROVAL_ROLE ( '' ) ;
#152 = CARTESIAN_POINT ( 'NONE',  ( 6.982962677686250933E-16, -2.435834570415085380E-17, 0.1999999999999995393 ) ) ;
#153 = APPROVAL_PERSON_ORGANIZATION ( #208, #1, #151 ) ;
#154 = PERSON_AND_ORGANIZATION_ROLE ( 'classification_officer' ) ;
#155 = CC_DESIGN_DATE_AND_TIME_ASSIGNMENT ( #53, #44, ( #196 ) ) ;
#156 = DIRECTION ( 'NONE',  ( -3.491481338843133355E-15, 1.224646799147353207E-16, -1.000000000000000000 ) ) ;
#157 = CC_DESIGN_APPROVAL ( #1, ( #194 ) ) ;
#158 = AXIS2_PLACEMENT_3D ( 'NONE', #161, #65, #107 ) ;
#159 = DIRECTION ( 'NONE',  ( -3.491481338843133355E-15, 1.224646799147353207E-16, -1.000000000000000000 ) ) ;
#160 = DIRECTION ( 'NONE',  ( -4.275831445896958607E-31, -1.000000000000000000, -1.224646799147353207E-16 ) ) ;
#161 = CARTESIAN_POINT ( 'NONE',  ( 1.256933281983528008E-13, -4.408728476930470856E-15, 36.00000000000000000 ) ) ;
#162 = AXIS2_PLACEMENT_3D ( 'NONE', #18, #159, #45 ) ;
#163 = DIRECTION ( 'NONE',  ( -3.491481338843133355E-15, 1.224646799147353207E-16, -1.000000000000000000 ) ) ;
#164 = CARTESIAN_POINT ( 'NONE',  ( 0.0000000000000000000, 0.0000000000000000000, 0.0000000000000000000 ) ) ;
#165 = DIRECTION ( 'NONE',  ( 4.275831445896958607E-31, 1.000000000000000000, 1.224646799147353207E-16 ) ) ;
#166 = SHAPE_DEFINITION_REPRESENTATION ( #49, #30 ) ;
#167 = AXIS2_PLACEMENT_3D ( 'NONE', #217, #123, #70 ) ;
#168 = ORIENTED_EDGE ( 'NONE', *, *, #205, .T. ) ;
#169 = EDGE_LOOP ( 'NONE', ( #72 ) ) ;
#170 = CC_DESIGN_PERSON_AND_ORGANIZATION_ASSIGNMENT ( #136, #145, ( #64 ) ) ;
#171 = EDGE_LOOP ( 'NONE', ( #86 ) ) ;
#172 = ORIENTED_EDGE ( 'NONE', *, *, #199, .F. ) ;
#173 = CALENDAR_DATE ( 2021, 17, 11 ) ;
#174 = CC_DESIGN_DATE_AND_TIME_ASSIGNMENT ( #209, #115, ( #194 ) ) ;
#175 = PERSON_AND_ORGANIZATION ( #26, #149 ) ;
#176 = CC_DESIGN_APPROVAL ( #143, ( #64 ) ) ;
#177 = APPROVAL_ROLE ( '' ) ;
#178 = PLANE ( 'NONE',  #5 ) ;
#179 = DIRECTION ( 'NONE',  ( 3.491481338843133355E-15, -1.217917285207545432E-16, 1.000000000000000000 ) ) ;
#180 = AXIS2_PLACEMENT_3D ( 'NONE', #78, #179, #139 ) ;
#181 = VERTEX_POINT ( 'NONE', #120 ) ;
#182 = AXIS2_PLACEMENT_3D ( 'NONE', #35, #13, #85 ) ;
#183 = VERTEX_POINT ( 'NONE', #4 ) ;
#184 = CARTESIAN_POINT ( 'NONE',  ( 0.0000000000000000000, 0.0000000000000000000, 0.0000000000000000000 ) ) ;
#185 = APPLICATION_PROTOCOL_DEFINITION ( 'international standard', 'config_control_design', 1994, #52 ) ;
#186 = EDGE_LOOP ( 'NONE', ( #189 ) ) ;
#187 = CLOSED_SHELL ( 'NONE', ( #188, #27, #54, #108 ) ) ;
#188 = ADVANCED_FACE ( 'NONE', ( #63, #203 ), #110, .T. ) ;
#189 = ORIENTED_EDGE ( 'NONE', *, *, #105, .F. ) ;
#190 = EDGE_CURVE ( 'NONE', #183, #183, #122, .T. ) ;
#191 = EDGE_LOOP ( 'NONE', ( #34 ) ) ;
#192 = DATE_AND_TIME ( #75, #48 ) ;
#193 = ORIENTED_EDGE ( 'NONE', *, *, #74, .F. ) ;
#194 = SECURITY_CLASSIFICATION ( '', '', #58 ) ;
#195 = PERSON_AND_ORGANIZATION ( #26, #149 ) ;
#196 = PRODUCT_DEFINITION ( 'UNKNOWN', '', #64, #126 ) ;
#197 = PERSON_AND_ORGANIZATION_ROLE ( 'design_owner' ) ;
#198 = COORDINATED_UNIVERSAL_TIME_OFFSET ( 1, 0, .AHEAD. ) ;
#199 = EDGE_CURVE ( 'NONE', #83, #83, #215, .T. ) ;
#200 = FACE_OUTER_BOUND ( 'NONE', #96, .T. ) ;
#201 = ADVANCED_FACE ( 'NONE', ( #200, #25 ), #69, .T. ) ;
#202 = VERTEX_POINT ( 'NONE', #50 ) ;
#203 = FACE_OUTER_BOUND ( 'NONE', #130, .T. ) ;
#204 = ORIENTED_EDGE ( 'NONE', *, *, #46, .F. ) ;
#205 = EDGE_CURVE ( 'NONE', #29, #29, #24, .T. ) ;
#206 = FACE_OUTER_BOUND ( 'NONE', #146, .T. ) ;
#207 = ADVANCED_FACE ( 'NONE', ( #109 ), #6, .F. ) ;
#208 = PERSON_AND_ORGANIZATION ( #26, #149 ) ;
#209 = DATE_AND_TIME ( #134, #39 ) ;
#210 = DIRECTION ( 'NONE',  ( 3.491481338843133355E-15, -1.217917285207545432E-16, 1.000000000000000000 ) ) ;
#211 = CALENDAR_DATE ( 2021, 17, 11 ) ;
#212 = DIRECTION ( 'NONE',  ( 0.0000000000000000000, 1.000000000000000000, 0.0000000000000000000 ) ) ;
#213 = CARTESIAN_POINT ( 'NONE',  ( -3.316821669374174731E-30, 1.156991560613707363E-31, -9.499754824618853288E-16 ) ) ;
#214 = MECHANICAL_CONTEXT ( 'NONE', #40, 'mechanical' ) ;
#215 = CIRCLE ( 'NONE', #111, 7.799999999999998046 ) ;
#216 = DIRECTION ( 'NONE',  ( 3.491481338843133355E-15, -1.217917285207545432E-16, 1.000000000000000000 ) ) ;
#217 = CARTESIAN_POINT ( 'NONE',  ( 0.0000000000000000000, 0.0000000000000000000, 0.0000000000000000000 ) ) ;
#218 = CIRCLE ( 'NONE', #10, 8.000000000000000000 ) ;
#219 = CC_DESIGN_PERSON_AND_ORGANIZATION_ASSIGNMENT ( #195, #197, ( #140 ) ) ;
#220 = DATE_AND_TIME ( #173, #67 ) ;
#221 = APPROVAL_DATE_TIME ( #220, #1 ) ;
#222 = FACE_OUTER_BOUND ( 'NONE', #55, .T. ) ;
#223 = APPROVAL_ROLE ( '' ) ;
ENDSEC;
END-ISO-10303-21;
