ISO-10303-21;
HEADER;
FILE_DESCRIPTION (( 'STEP AP203' ),
    '1' );
FILE_NAME ('633.step',
    '2021-12-06T12:59:58',
    ( '' ),
    ( '' ),
    'SwSTEP 2.0',
    'SolidWorks 2019',
    '' );
FILE_SCHEMA (( 'CONFIG_CONTROL_DESIGN' ));
ENDSEC;

DATA;
#1 = APPROVAL_ROLE ( '' ) ;
#2 = APPLICATION_PROTOCOL_DEFINITION ( 'international standard', 'config_control_design', 1994, #82 ) ;
#3 = PLANE ( 'NONE',  #116 ) ;
#4 = VERTEX_POINT ( 'NONE', #108 ) ;
#5 = LOCAL_TIME ( 13, 59, 58.00000000000000000, #103 ) ;
#6 = ORIENTED_EDGE ( 'NONE', *, *, #151, .T. ) ;
#7 = AXIS2_PLACEMENT_3D ( 'NONE', #102, #154, #39 ) ;
#8 = EDGE_LOOP ( 'NONE', ( #87 ) ) ;
#9 = DIRECTION ( 'NONE',  ( -3.491481338843133355E-15, 1.224646799147352961E-16, -1.000000000000000000 ) ) ;
#10 = DATE_AND_TIME ( #25, #97 ) ;
#11 = DIRECTION ( 'NONE',  ( -3.491481338843133355E-15, 1.224646799147352961E-16, -1.000000000000000000 ) ) ;
#12 = DATE_AND_TIME ( #93, #5 ) ;
#13 = ADVANCED_FACE ( 'NONE', ( #89, #141 ), #51, .F. ) ;
#14 = PERSON_AND_ORGANIZATION_ROLE ( 'design_owner' ) ;
#15 = PERSON_AND_ORGANIZATION ( #147, #149 ) ;
#16 = CIRCLE ( 'NONE', #23, 4.000000000000000000 ) ;
#17 = DIRECTION ( 'NONE',  ( 3.851859888774471706E-31, 1.000000000000000000, 1.355252715606880543E-16 ) ) ;
#18 = VERTEX_POINT ( 'NONE', #32 ) ;
#19 = APPROVAL_PERSON_ORGANIZATION ( #115, #107, #153 ) ;
#20 = ORIENTED_EDGE ( 'NONE', *, *, #137, .F. ) ;
#21 = ADVANCED_BREP_SHAPE_REPRESENTATION ( '633', ( #105, #163 ), #159 ) ;
#22 = CC_DESIGN_DATE_AND_TIME_ASSIGNMENT ( #10, #60, ( #148 ) ) ;
#23 = AXIS2_PLACEMENT_3D ( 'NONE', #92, #59, #61 ) ;
#24 = DIRECTION ( 'NONE',  ( 4.275831445896957731E-31, 1.000000000000000000, 1.224646799147352961E-16 ) ) ;
#25 = CALENDAR_DATE ( 2021, 6, 12 ) ;
#26 = DIRECTION ( 'NONE',  ( 4.275831445896957731E-31, 1.000000000000000000, 1.224646799147352961E-16 ) ) ;
#27 = CALENDAR_DATE ( 2021, 6, 12 ) ;
#28 = CC_DESIGN_APPROVAL ( #107, ( #99 ) ) ;
#29 = APPROVAL_DATE_TIME ( #42, #167 ) ;
#30 = CC_DESIGN_DATE_AND_TIME_ASSIGNMENT ( #12, #79, ( #90 ) ) ;
#31 = MECHANICAL_CONTEXT ( 'NONE', #98, 'mechanical' ) ;
#32 = CARTESIAN_POINT ( 'NONE',  ( 3.142333204958820020E-15, 12.50000000000000000, 0.9000000000000000222 ) ) ;
#33 =( LENGTH_UNIT ( ) NAMED_UNIT ( * ) SI_UNIT ( .MILLI., .METRE. ) );
#34 = ORIENTED_EDGE ( 'NONE', *, *, #44, .T. ) ;
#35 = ORIENTED_EDGE ( 'NONE', *, *, #44, .F. ) ;
#36 = AXIS2_PLACEMENT_3D ( 'NONE', #152, #37, #26 ) ;
#37 = DIRECTION ( 'NONE',  ( -3.491481338843133355E-15, 1.224646799147352961E-16, -1.000000000000000000 ) ) ;
#38 = APPROVAL_ROLE ( '' ) ;
#39 = DIRECTION ( 'NONE',  ( 4.275831445896957731E-31, 1.000000000000000000, 1.224646799147352961E-16 ) ) ;
#40 = PERSON_AND_ORGANIZATION_ROLE ( 'design_supplier' ) ;
#41 = AXIS2_PLACEMENT_3D ( 'NONE', #126, #9, #136 ) ;
#42 = DATE_AND_TIME ( #129, #94 ) ;
#43 = DIRECTION ( 'NONE',  ( -3.491481338843133355E-15, 1.224646799147352961E-16, -1.000000000000000000 ) ) ;
#44 = EDGE_CURVE ( 'NONE', #4, #4, #16, .T. ) ;
#45 = EDGE_LOOP ( 'NONE', ( #86 ) ) ;
#46 = APPROVAL ( #50, 'UNSPECIFIED' ) ;
#47 = UNCERTAINTY_MEASURE_WITH_UNIT (LENGTH_MEASURE( 1.000000000000000082E-05 ), #33, 'distance_accuracy_value', 'NONE');
#48 = APPROVAL_PERSON_ORGANIZATION ( #106, #167, #1 ) ;
#49 = PLANE ( 'NONE',  #134 ) ;
#50 = APPROVAL_STATUS ( 'not_yet_approved' ) ;
#51 = CYLINDRICAL_SURFACE ( 'NONE', #7, 4.000000000000000000 ) ;
#52 = PERSON_AND_ORGANIZATION ( #147, #149 ) ;
#53 = CARTESIAN_POINT ( 'NONE',  ( 6.842277657836020854E-46, 12.50000000000000000, 0.0000000000000000000 ) ) ;
#54 = DIRECTION ( 'NONE',  ( 3.491481338843133355E-15, -1.224646799147352961E-16, 1.000000000000000000 ) ) ;
#55 = CIRCLE ( 'NONE', #88, 4.000000000000000000 ) ;
#56 = EDGE_LOOP ( 'NONE', ( #35 ) ) ;
#57 = CC_DESIGN_PERSON_AND_ORGANIZATION_ASSIGNMENT ( #15, #66, ( #90 ) ) ;
#58 = PRODUCT_RELATED_PRODUCT_CATEGORY ( 'detail', '', ( #128 ) ) ;
#59 = DIRECTION ( 'NONE',  ( -3.491481338843133355E-15, 1.224646799147352961E-16, -1.000000000000000000 ) ) ;
#60 = DATE_TIME_ROLE ( 'classification_date' ) ;
#61 = DIRECTION ( 'NONE',  ( 4.275831445896957731E-31, 1.000000000000000000, 1.224646799147352961E-16 ) ) ;
#62 = CC_DESIGN_SECURITY_CLASSIFICATION ( #148, ( #99 ) ) ;
#63 = PERSON_AND_ORGANIZATION_ROLE ( 'creator' ) ;
#64 = CIRCLE ( 'NONE', #121, 12.50000000000000000 ) ;
#65 = APPROVAL_STATUS ( 'not_yet_approved' ) ;
#66 = PERSON_AND_ORGANIZATION_ROLE ( 'creator' ) ;
#67 =( NAMED_UNIT ( * ) PLANE_ANGLE_UNIT ( ) SI_UNIT ( $, .RADIAN. ) );
#68 = CARTESIAN_POINT ( 'NONE',  ( 3.142333204958818048E-15, 4.000000000000000000, 0.8999999999999994671 ) ) ;
#69 = APPROVAL_PERSON_ORGANIZATION ( #113, #46, #38 ) ;
#70 = FACE_OUTER_BOUND ( 'NONE', #145, .T. ) ;
#71 = EDGE_LOOP ( 'NONE', ( #34 ) ) ;
#72 = EDGE_LOOP ( 'NONE', ( #6 ) ) ;
#73 = EDGE_CURVE ( 'NONE', #131, #131, #109, .T. ) ;
#74 = CARTESIAN_POINT ( 'NONE',  ( -1.817228364506207014E-30, 4.000000000000000000, -5.204748896376249713E-16 ) ) ;
#75 = APPROVAL_DATE_TIME ( #168, #107 ) ;
#76 = CARTESIAN_POINT ( 'NONE',  ( 3.142333204958814498E-15, -1.102182119232615816E-16, 0.8999999999999984679 ) ) ;
#77 = PRODUCT_DEFINITION_SHAPE ( 'NONE', 'NONE',  #90 ) ;
#78 = CC_DESIGN_PERSON_AND_ORGANIZATION_ASSIGNMENT ( #52, #63, ( #99 ) ) ;
#79 = DATE_TIME_ROLE ( 'creation_date' ) ;
#80 = CLOSED_SHELL ( 'NONE', ( #110, #118, #164, #13 ) ) ;
#81 = CC_DESIGN_APPROVAL ( #167, ( #90 ) ) ;
#82 = APPLICATION_CONTEXT ( 'configuration controlled 3d designs of mechanical parts and assemblies' ) ;
#83 = DIRECTION ( 'NONE',  ( 0.0000000000000000000, 0.0000000000000000000, 1.000000000000000000 ) ) ;
#84 = VERTEX_POINT ( 'NONE', #130 ) ;
#85 = FACE_BOUND ( 'NONE', #72, .T. ) ;
#86 = ORIENTED_EDGE ( 'NONE', *, *, #73, .F. ) ;
#87 = ORIENTED_EDGE ( 'NONE', *, *, #151, .F. ) ;
#88 = AXIS2_PLACEMENT_3D ( 'NONE', #158, #43, #17 ) ;
#89 = FACE_OUTER_BOUND ( 'NONE', #71, .T. ) ;
#90 = PRODUCT_DEFINITION ( 'UNKNOWN', '', #99, #150 ) ;
#91 = COORDINATED_UNIVERSAL_TIME_OFFSET ( 1, 0, .AHEAD. ) ;
#92 = CARTESIAN_POINT ( 'NONE',  ( -1.710332578358782742E-30, 5.999039130647427147E-32, -4.898587196589411843E-16 ) ) ;
#93 = CALENDAR_DATE ( 2021, 6, 12 ) ;
#94 = LOCAL_TIME ( 13, 59, 58.00000000000000000, #104 ) ;
#95 = DIRECTION ( 'NONE',  ( 1.000000000000000000, 0.0000000000000000000, 0.0000000000000000000 ) ) ;
#96 =( NAMED_UNIT ( * ) SI_UNIT ( $, .STERADIAN. ) SOLID_ANGLE_UNIT ( ) );
#97 = LOCAL_TIME ( 13, 59, 58.00000000000000000, #91 ) ;
#98 = APPLICATION_CONTEXT ( 'configuration controlled 3d designs of mechanical parts and assemblies' ) ;
#99 = PRODUCT_DEFINITION_FORMATION_WITH_SPECIFIED_SOURCE ( 'ANY', '', #128, .NOT_KNOWN. ) ;
#100 = FACE_OUTER_BOUND ( 'NONE', #165, .T. ) ;
#101 = APPROVAL_STATUS ( 'not_yet_approved' ) ;
#102 = CARTESIAN_POINT ( 'NONE',  ( 0.0000000000000000000, 0.0000000000000000000, 0.0000000000000000000 ) ) ;
#103 = COORDINATED_UNIVERSAL_TIME_OFFSET ( 1, 0, .AHEAD. ) ;
#104 = COORDINATED_UNIVERSAL_TIME_OFFSET ( 1, 0, .AHEAD. ) ;
#105 = MANIFOLD_SOLID_BREP ( 'Corps-Déplacer/Copier1', #80 ) ;
#106 = PERSON_AND_ORGANIZATION ( #147, #149 ) ;
#107 = APPROVAL ( #101, 'UNSPECIFIED' ) ;
#108 = CARTESIAN_POINT ( 'NONE',  ( 3.421138828918010427E-46, 4.000000000000000000, 0.0000000000000000000 ) ) ;
#109 = CIRCLE ( 'NONE', #41, 12.50000000000000000 ) ;
#110 = ADVANCED_FACE ( 'NONE', ( #100, #124 ), #49, .T. ) ;
#111 = LOCAL_TIME ( 13, 59, 58.00000000000000000, #169 ) ;
#112 = FACE_OUTER_BOUND ( 'NONE', #160, .T. ) ;
#113 = PERSON_AND_ORGANIZATION ( #147, #149 ) ;
#114 = DIRECTION ( 'NONE',  ( -3.491481338843133355E-15, 1.224646799147352961E-16, -1.000000000000000000 ) ) ;
#115 = PERSON_AND_ORGANIZATION ( #147, #149 ) ;
#116 = AXIS2_PLACEMENT_3D ( 'NONE', #68, #54, #119 ) ;
#117 = PERSON_AND_ORGANIZATION ( #147, #149 ) ;
#118 = ADVANCED_FACE ( 'NONE', ( #112, #139 ), #166, .T. ) ;
#119 = DIRECTION ( 'NONE',  ( -4.275831445896957731E-31, -1.000000000000000000, -1.224646799147352961E-16 ) ) ;
#120 = CC_DESIGN_APPROVAL ( #46, ( #148 ) ) ;
#121 = AXIS2_PLACEMENT_3D ( 'NONE', #76, #114, #144 ) ;
#122 = CC_DESIGN_PERSON_AND_ORGANIZATION_ASSIGNMENT ( #127, #40, ( #99 ) ) ;
#123 = DATE_AND_TIME ( #27, #162 ) ;
#124 = FACE_BOUND ( 'NONE', #56, .T. ) ;
#125 = SECURITY_CLASSIFICATION_LEVEL ( 'unclassified' ) ;
#126 = CARTESIAN_POINT ( 'NONE',  ( -5.344789307371196769E-30, 1.874699728327321462E-31, -1.530808498934191127E-15 ) ) ;
#127 = PERSON_AND_ORGANIZATION ( #147, #149 ) ;
#128 = PRODUCT ( '633', '633', '', ( #31 ) ) ;
#129 = CALENDAR_DATE ( 2021, 6, 12 ) ;
#130 = CARTESIAN_POINT ( 'NONE',  ( 3.142333204958819625E-15, 4.000000000000000000, 0.9000000000000000222 ) ) ;
#131 = VERTEX_POINT ( 'NONE', #53 ) ;
#132 = APPROVAL_DATE_TIME ( #123, #46 ) ;
#133 = ORIENTED_EDGE ( 'NONE', *, *, #137, .T. ) ;
#134 = AXIS2_PLACEMENT_3D ( 'NONE', #74, #11, #24 ) ;
#135 = SHAPE_DEFINITION_REPRESENTATION ( #77, #21 ) ;
#136 = DIRECTION ( 'NONE',  ( 4.275831445896957731E-31, 1.000000000000000000, 1.224646799147352961E-16 ) ) ;
#137 = EDGE_CURVE ( 'NONE', #18, #18, #64, .T. ) ;
#138 = PERSON_AND_ORGANIZATION_ROLE ( 'classification_officer' ) ;
#139 = FACE_OUTER_BOUND ( 'NONE', #45, .T. ) ;
#140 = COORDINATED_UNIVERSAL_TIME_OFFSET ( 1, 0, .AHEAD. ) ;
#141 = FACE_OUTER_BOUND ( 'NONE', #8, .T. ) ;
#142 = PERSON_AND_ORGANIZATION ( #147, #149 ) ;
#143 = APPLICATION_PROTOCOL_DEFINITION ( 'international standard', 'config_control_design', 1994, #98 ) ;
#144 = DIRECTION ( 'NONE',  ( 4.314083075427408311E-31, 1.000000000000000000, 1.214306433183764966E-16 ) ) ;
#145 = EDGE_LOOP ( 'NONE', ( #20 ) ) ;
#146 = CC_DESIGN_PERSON_AND_ORGANIZATION_ASSIGNMENT ( #117, #14, ( #128 ) ) ;
#147 = PERSON ( 'UNSPECIFIED', 'UNSPECIFIED', 'UNSPECIFIED', ('UNSPECIFIED'), ('UNSPECIFIED'), ('UNSPECIFIED') ) ;
#148 = SECURITY_CLASSIFICATION ( '', '', #125 ) ;
#149 = ORGANIZATION ( 'UNSPECIFIED', 'UNSPECIFIED', '' ) ;
#150 = DESIGN_CONTEXT ( 'detailed design', #82, 'design' ) ;
#151 = EDGE_CURVE ( 'NONE', #84, #84, #55, .T. ) ;
#152 = CARTESIAN_POINT ( 'NONE',  ( 0.0000000000000000000, 0.0000000000000000000, 0.0000000000000000000 ) ) ;
#153 = APPROVAL_ROLE ( '' ) ;
#154 = DIRECTION ( 'NONE',  ( -3.491481338843133355E-15, 1.224646799147352961E-16, -1.000000000000000000 ) ) ;
#155 = CALENDAR_DATE ( 2021, 6, 12 ) ;
#156 = CC_DESIGN_PERSON_AND_ORGANIZATION_ASSIGNMENT ( #142, #138, ( #148 ) ) ;
#157 = CARTESIAN_POINT ( 'NONE',  ( 0.0000000000000000000, 0.0000000000000000000, 0.0000000000000000000 ) ) ;
#158 = CARTESIAN_POINT ( 'NONE',  ( 3.142333204958818048E-15, -1.102182119232617048E-16, 0.8999999999999994671 ) ) ;
#159 =( GEOMETRIC_REPRESENTATION_CONTEXT ( 3 ) GLOBAL_UNCERTAINTY_ASSIGNED_CONTEXT ( ( #47 ) ) GLOBAL_UNIT_ASSIGNED_CONTEXT ( ( #33, #67, #96 ) ) REPRESENTATION_CONTEXT ( 'NONE', 'WORKASPACE' ) );
#160 = EDGE_LOOP ( 'NONE', ( #133 ) ) ;
#161 = ORIENTED_EDGE ( 'NONE', *, *, #73, .T. ) ;
#162 = LOCAL_TIME ( 13, 59, 58.00000000000000000, #140 ) ;
#163 = AXIS2_PLACEMENT_3D ( 'NONE', #157, #83, #95 ) ;
#164 = ADVANCED_FACE ( 'NONE', ( #85, #70 ), #3, .T. ) ;
#165 = EDGE_LOOP ( 'NONE', ( #161 ) ) ;
#166 = CYLINDRICAL_SURFACE ( 'NONE', #36, 12.50000000000000000 ) ;
#167 = APPROVAL ( #65, 'UNSPECIFIED' ) ;
#168 = DATE_AND_TIME ( #155, #111 ) ;
#169 = COORDINATED_UNIVERSAL_TIME_OFFSET ( 1, 0, .AHEAD. ) ;
ENDSEC;
END-ISO-10303-21;
