ISO-10303-21;
HEADER;
FILE_DESCRIPTION (( 'STEP AP203' ),
    '1' );
FILE_NAME ('63271.step',
    '2021-11-30T06:45:02',
    ( '' ),
    ( '' ),
    'SwSTEP 2.0',
    'SolidWorks 2019',
    '' );
FILE_SCHEMA (( 'CONFIG_CONTROL_DESIGN' ));
ENDSEC;

DATA;
#1 = COORDINATED_UNIVERSAL_TIME_OFFSET ( 1, 0, .AHEAD. ) ;
#2 = VERTEX_POINT ( 'NONE', #115 ) ;
#3 =( NAMED_UNIT ( * ) SI_UNIT ( $, .STERADIAN. ) SOLID_ANGLE_UNIT ( ) );
#4 = ADVANCED_FACE ( 'NONE', ( #148 ), #199, .F. ) ;
#5 = ORIENTED_EDGE ( 'NONE', *, *, #206, .F. ) ;
#6 = CC_DESIGN_PERSON_AND_ORGANIZATION_ASSIGNMENT ( #254, #44, ( #289 ) ) ;
#7 = AXIS2_PLACEMENT_3D ( 'NONE', #59, #175, #179 ) ;
#8 = EDGE_LOOP ( 'NONE', ( #200 ) ) ;
#9 = DIRECTION ( 'NONE',  ( -3.491481338843133355E-15, 1.224646799147353207E-16, -1.000000000000000000 ) ) ;
#10 = CIRCLE ( 'NONE', #282, 0.8741624327025945274 ) ;
#11 = DIRECTION ( 'NONE',  ( 3.781894834339200650E-31, 1.000000000000000000, 1.064508760417776734E-16 ) ) ;
#12 = ORIENTED_EDGE ( 'NONE', *, *, #202, .F. ) ;
#13 = EDGE_LOOP ( 'NONE', ( #54 ) ) ;
#14 = AXIS2_PLACEMENT_3D ( 'NONE', #16, #83, #233 ) ;
#15 = CYLINDRICAL_SURFACE ( 'NONE', #239, 1.018499999999999517 ) ;
#16 = CARTESIAN_POINT ( 'NONE',  ( 2.793185071074506684E-14, 7.637526693205492543E-33, 8.000000000000000000 ) ) ;
#17 = ADVANCED_FACE ( 'NONE', ( #290, #243 ), #58, .T. ) ;
#18 = FACE_BOUND ( 'NONE', #30, .T. ) ;
#19 = VERTEX_POINT ( 'NONE', #46 ) ;
#20 = CARTESIAN_POINT ( 'NONE',  ( 7.603134006802638263E-14, -2.666820418408535974E-15, 21.77624128250921132 ) ) ;
#21 = CIRCLE ( 'NONE', #75, 0.8649999999999987699 ) ;
#22 = DIRECTION ( 'NONE',  ( 1.000000000000000000, 0.0000000000000000000, 0.0000000000000000000 ) ) ;
#23 = DIRECTION ( 'NONE',  ( -3.491481338843133355E-15, 1.224646799147353207E-16, -1.000000000000000000 ) ) ;
#24 = PERSON_AND_ORGANIZATION_ROLE ( 'creator' ) ;
#25 = CARTESIAN_POINT ( 'NONE',  ( 2.886013015238225878E-14, 0.8649999999999977707, 8.265869798961826831 ) ) ;
#26 = UNCERTAINTY_MEASURE_WITH_UNIT (LENGTH_MEASURE( 1.000000000000000082E-05 ), #205, 'distance_accuracy_value', 'NONE');
#27 = EDGE_LOOP ( 'NONE', ( #218 ) ) ;
#28 = AXIS2_PLACEMENT_3D ( 'NONE', #63, #38, #303 ) ;
#29 = CARTESIAN_POINT ( 'NONE',  ( 0.0000000000000000000, 0.0000000000000000000, 0.0000000000000000000 ) ) ;
#30 = EDGE_LOOP ( 'NONE', ( #225 ) ) ;
#31 = ADVANCED_FACE ( 'NONE', ( #99, #78 ), #113, .T. ) ;
#32 = ADVANCED_FACE ( 'NONE', ( #127, #287 ), #213, .F. ) ;
#33 = CARTESIAN_POINT ( 'NONE',  ( 2.886013015238225878E-14, -1.012277099146737755E-15, 8.265869798961826831 ) ) ;
#34 = APPROVAL ( #167, 'UNSPECIFIED' ) ;
#35 = AXIS2_PLACEMENT_3D ( 'NONE', #204, #184, #249 ) ;
#36 = DIRECTION ( 'NONE',  ( -4.275831445896958607E-31, -1.000000000000000000, -1.224646799147353207E-16 ) ) ;
#37 = DIRECTION ( 'NONE',  ( 4.275831445896958607E-31, 1.000000000000000000, 1.224646799147353207E-16 ) ) ;
#38 = DIRECTION ( 'NONE',  ( 3.491481338843133355E-15, -1.224646799147353207E-16, 1.000000000000000000 ) ) ;
#39 = EDGE_CURVE ( 'NONE', #114, #114, #216, .T. ) ;
#40 = CIRCLE ( 'NONE', #102, 1.499999999999996669 ) ;
#41 = CARTESIAN_POINT ( 'NONE',  ( 2.793185071074506684E-14, -9.797174393178825657E-16, 8.000000000000000000 ) ) ;
#42 = PERSON_AND_ORGANIZATION_ROLE ( 'design_supplier' ) ;
#43 = DIRECTION ( 'NONE',  ( -3.491481338843133355E-15, 1.224646799147353207E-16, -1.000000000000000000 ) ) ;
#44 = PERSON_AND_ORGANIZATION_ROLE ( 'classification_officer' ) ;
#45 = DIRECTION ( 'NONE',  ( 4.275831445896958607E-31, 1.000000000000000000, 1.224646799147353207E-16 ) ) ;
#46 = CARTESIAN_POINT ( 'NONE',  ( 7.603134006802638263E-14, 1.499999999999994005, 21.77624128250921132 ) ) ;
#47 = CC_DESIGN_PERSON_AND_ORGANIZATION_ASSIGNMENT ( #89, #209, ( #219 ) ) ;
#48 = DIRECTION ( 'NONE',  ( -3.491481338843133355E-15, 1.224646799147353207E-16, -1.000000000000000000 ) ) ;
#49 = CLOSED_SHELL ( 'NONE', ( #267, #217, #221, #168 ) ) ;
#50 = COORDINATED_UNIVERSAL_TIME_OFFSET ( 1, 0, .AHEAD. ) ;
#51 = PRODUCT_RELATED_PRODUCT_CATEGORY ( 'detail', '', ( #219 ) ) ;
#52 = ORIENTED_EDGE ( 'NONE', *, *, #131, .F. ) ;
#53 = EDGE_LOOP ( 'NONE', ( #220 ) ) ;
#54 = ORIENTED_EDGE ( 'NONE', *, *, #57, .T. ) ;
#55 = ADVANCED_FACE ( 'NONE', ( #56 ), #103, .F. ) ;
#56 = FACE_OUTER_BOUND ( 'NONE', #264, .T. ) ;
#57 = EDGE_CURVE ( 'NONE', #280, #280, #192, .T. ) ;
#58 = CYLINDRICAL_SURFACE ( 'NONE', #244, 0.8649999999999993250 ) ;
#59 = CARTESIAN_POINT ( 'NONE',  ( 1.745740669421566678E-13, 8.998558695971067645E-33, 50.00000000000000000 ) ) ;
#60 = CIRCLE ( 'NONE', #277, 1.500000000000001554 ) ;
#61 = DIRECTION ( 'NONE',  ( 0.0000000000000000000, 1.000000000000000000, 0.0000000000000000000 ) ) ;
#62 = APPLICATION_CONTEXT ( 'configuration controlled 3d designs of mechanical parts and assemblies' ) ;
#63 = CARTESIAN_POINT ( 'NONE',  ( 8.728703347107829444E-16, -3.061616997868381785E-17, 0.2499999999999998890 ) ) ;
#64 = CARTESIAN_POINT ( 'NONE',  ( 2.793185071074506684E-14, -9.797174393178825657E-16, 8.000000000000000000 ) ) ;
#65 = DATE_TIME_ROLE ( 'creation_date' ) ;
#66 = AXIS2_PLACEMENT_3D ( 'NONE', #138, #181, #210 ) ;
#67 = LOCAL_TIME ( 7, 45, 2.000000000000000000, #50 ) ;
#68 = DIRECTION ( 'NONE',  ( 0.0000000000000000000, 1.000000000000000000, 0.0000000000000000000 ) ) ;
#69 = CALENDAR_DATE ( 2021, 30, 11 ) ;
#70 = DIRECTION ( 'NONE',  ( -3.491481338843133355E-15, 1.224646799147353207E-16, -1.000000000000000000 ) ) ;
#71 = CARTESIAN_POINT ( 'NONE',  ( 1.735266225405037467E-13, 1.499999999999995559, 49.70000000000000284 ) ) ;
#72 = CARTESIAN_POINT ( 'NONE',  ( 1.745740669421566678E-13, 1.199999999999995515, 50.00000000000000000 ) ) ;
#73 = MANIFOLD_SOLID_BREP ( 'Corps-Déplacer/Copier1[2]', #49 ) ;
#74 = CARTESIAN_POINT ( 'NONE',  ( 6.405924284287275164E-14, 0.8953844939755795096, 18.34729635533384595 ) ) ;
#75 = AXIS2_PLACEMENT_3D ( 'NONE', #107, #70, #296 ) ;
#76 = CC_DESIGN_APPROVAL ( #153, ( #157 ) ) ;
#77 = CALENDAR_DATE ( 2021, 30, 11 ) ;
#78 = FACE_BOUND ( 'NONE', #152, .T. ) ;
#79 = CARTESIAN_POINT ( 'NONE',  ( 6.284666409917640040E-14, -2.168404344971008868E-15, 18.00000000000000000 ) ) ;
#80 = EDGE_LOOP ( 'NONE', ( #176 ) ) ;
#81 = CARTESIAN_POINT ( 'NONE',  ( 8.728703347107829444E-16, -3.061616997868381785E-17, 0.2499999999999998890 ) ) ;
#82 = DIRECTION ( 'NONE',  ( -3.491481338843133355E-15, 1.224646799147353207E-16, -1.000000000000000000 ) ) ;
#83 = DIRECTION ( 'NONE',  ( 3.491481338843133355E-15, -1.224646799147353207E-16, 1.000000000000000000 ) ) ;
#84 = DIRECTION ( 'NONE',  ( -3.491481338843133355E-15, 1.224646799147353207E-16, -1.000000000000000000 ) ) ;
#85 = DIRECTION ( 'NONE',  ( -3.491481338843133355E-15, 1.224646799147353207E-16, -1.000000000000000000 ) ) ;
#86 = APPROVAL_PERSON_ORGANIZATION ( #275, #153, #165 ) ;
#87 = FACE_OUTER_BOUND ( 'NONE', #27, .T. ) ;
#88 = CC_DESIGN_PERSON_AND_ORGANIZATION_ASSIGNMENT ( #159, #42, ( #266 ) ) ;
#89 = PERSON_AND_ORGANIZATION ( #124, #106 ) ;
#90 = CARTESIAN_POINT ( 'NONE',  ( 8.728703347107833388E-16, 1.018499999999998851, 0.2500000000000000000 ) ) ;
#91 = DATE_AND_TIME ( #252, #149 ) ;
#92 = CARTESIAN_POINT ( 'NONE',  ( 2.793185071074506684E-14, 1.018499999999998851, 8.000000000000000000 ) ) ;
#93 = MECHANICAL_CONTEXT ( 'NONE', #62, 'mechanical' ) ;
#94 = CIRCLE ( 'NONE', #121, 1.018499999999999961 ) ;
#95 = APPROVAL_PERSON_ORGANIZATION ( #214, #100, #146 ) ;
#96 = ORIENTED_EDGE ( 'NONE', *, *, #119, .T. ) ;
#97 = EDGE_LOOP ( 'NONE', ( #224 ) ) ;
#98 = AXIS2_PLACEMENT_3D ( 'NONE', #81, #9, #11 ) ;
#99 = FACE_OUTER_BOUND ( 'NONE', #241, .T. ) ;
#100 = APPROVAL ( #194, 'UNSPECIFIED' ) ;
#101 = DIRECTION ( 'NONE',  ( -3.491481338843133355E-15, 1.224646799147353207E-16, -1.000000000000000000 ) ) ;
#102 = AXIS2_PLACEMENT_3D ( 'NONE', #134, #48, #186 ) ;
#103 = PLANE ( 'NONE',  #271 ) ;
#104 = EDGE_LOOP ( 'NONE', ( #193 ) ) ;
#105 = DIRECTION ( 'NONE',  ( 0.0000000000000000000, 1.000000000000000000, 0.0000000000000000000 ) ) ;
#106 = ORGANIZATION ( 'UNSPECIFIED', 'UNSPECIFIED', '' ) ;
#107 = CARTESIAN_POINT ( 'NONE',  ( 2.886013015238225878E-14, -1.012277099146737755E-15, 8.265869798961826831 ) ) ;
#108 = ADVANCED_FACE ( 'NONE', ( #154, #247 ), #155, .T. ) ;
#109 = DIRECTION ( 'NONE',  ( -3.491481338843133355E-15, 1.224646799147353207E-16, -1.000000000000000000 ) ) ;
#110 = COORDINATED_UNIVERSAL_TIME_OFFSET ( 1, 0, .AHEAD. ) ;
#111 = DIRECTION ( 'NONE',  ( 4.275831445896958607E-31, 1.000000000000000000, 1.224646799147353454E-16 ) ) ;
#112 = VERTEX_POINT ( 'NONE', #71 ) ;
#113 = CONICAL_SURFACE ( 'NONE', #286, 0.8649999999999987699, 0.5235987755982941527 ) ;
#114 = VERTEX_POINT ( 'NONE', #90 ) ;
#115 = CARTESIAN_POINT ( 'NONE',  ( 2.793185071074506684E-14, 1.018499999999998851, 8.000000000000000000 ) ) ;
#116 = DIRECTION ( 'NONE',  ( 0.0000000000000000000, 1.000000000000000000, 0.0000000000000000000 ) ) ;
#117 = VERTEX_POINT ( 'NONE', #230 ) ;
#118 = CC_DESIGN_APPROVAL ( #34, ( #266 ) ) ;
#119 = EDGE_CURVE ( 'NONE', #166, #166, #208, .T. ) ;
#120 = COORDINATED_UNIVERSAL_TIME_OFFSET ( 1, 0, .AHEAD. ) ;
#121 = AXIS2_PLACEMENT_3D ( 'NONE', #64, #23, #116 ) ;
#122 = APPROVAL_PERSON_ORGANIZATION ( #234, #34, #258 ) ;
#123 = APPLICATION_CONTEXT ( 'configuration controlled 3d designs of mechanical parts and assemblies' ) ;
#124 = PERSON ( 'UNSPECIFIED', 'UNSPECIFIED', 'UNSPECIFIED', ('UNSPECIFIED'), ('UNSPECIFIED'), ('UNSPECIFIED') ) ;
#125 = ORIENTED_EDGE ( 'NONE', *, *, #131, .T. ) ;
#126 = ORIENTED_EDGE ( 'NONE', *, *, #197, .T. ) ;
#127 = FACE_OUTER_BOUND ( 'NONE', #104, .T. ) ;
#128 = CONICAL_SURFACE ( 'NONE', #66, 1.200000000000001732, 0.7853981633974453924 ) ;
#129 = CARTESIAN_POINT ( 'NONE',  ( 1.745740669421566678E-13, -6.123233995736766085E-15, 50.00000000000000000 ) ) ;
#130 = FACE_OUTER_BOUND ( 'NONE', #8, .T. ) ;
#131 = EDGE_CURVE ( 'NONE', #188, #188, #94, .T. ) ;
#132 = CIRCLE ( 'NONE', #35, 0.8649999999999998801 ) ;
#133 = ADVANCED_BREP_SHAPE_REPRESENTATION ( '63271', ( #173, #73, #223 ), #228 ) ;
#134 = CARTESIAN_POINT ( 'NONE',  ( 7.603134006802638263E-14, -2.666820418408535974E-15, 21.77624128250921132 ) ) ;
#135 = SECURITY_CLASSIFICATION_LEVEL ( 'unclassified' ) ;
#136 = PLANE ( 'NONE',  #14 ) ;
#137 = COORDINATED_UNIVERSAL_TIME_OFFSET ( 1, 0, .AHEAD. ) ;
#138 = CARTESIAN_POINT ( 'NONE',  ( 1.745740669421566678E-13, -6.123233995736766085E-15, 50.00000000000000000 ) ) ;
#139 = PERSON_AND_ORGANIZATION ( #124, #106 ) ;
#140 = CONICAL_SURFACE ( 'NONE', #169, 1.499999999999996669, 0.1745329251994258424 ) ;
#141 = FACE_OUTER_BOUND ( 'NONE', #222, .T. ) ;
#142 = PERSON_AND_ORGANIZATION ( #124, #106 ) ;
#143 = CC_DESIGN_PERSON_AND_ORGANIZATION_ASSIGNMENT ( #139, #187, ( #157 ) ) ;
#144 = CALENDAR_DATE ( 2021, 30, 11 ) ;
#145 = AXIS2_PLACEMENT_3D ( 'NONE', #255, #274, #229 ) ;
#146 = APPROVAL_ROLE ( '' ) ;
#147 = CC_DESIGN_PERSON_AND_ORGANIZATION_ASSIGNMENT ( #142, #24, ( #266 ) ) ;
#148 = FACE_OUTER_BOUND ( 'NONE', #80, .T. ) ;
#149 = LOCAL_TIME ( 7, 45, 2.000000000000000000, #1 ) ;
#150 = CC_DESIGN_DATE_AND_TIME_ASSIGNMENT ( #256, #65, ( #157 ) ) ;
#151 = DIRECTION ( 'NONE',  ( -3.491481338843133355E-15, 1.224646799147353207E-16, -1.000000000000000000 ) ) ;
#152 = EDGE_LOOP ( 'NONE', ( #240 ) ) ;
#153 = APPROVAL ( #259, 'UNSPECIFIED' ) ;
#154 = FACE_OUTER_BOUND ( 'NONE', #198, .T. ) ;
#155 = CYLINDRICAL_SURFACE ( 'NONE', #212, 1.499999999999999112 ) ;
#156 = DIRECTION ( 'NONE',  ( 0.0000000000000000000, 1.000000000000000000, 0.0000000000000000000 ) ) ;
#157 = PRODUCT_DEFINITION ( 'UNKNOWN', '', #266, #164 ) ;
#158 = AXIS2_PLACEMENT_3D ( 'NONE', #41, #109, #156 ) ;
#159 = PERSON_AND_ORGANIZATION ( #124, #106 ) ;
#160 = CARTESIAN_POINT ( 'NONE',  ( 6.405924284287275164E-14, -2.246895775456749140E-15, 18.34729635533384595 ) ) ;
#161 = ADVANCED_FACE ( 'NONE', ( #294, #231 ), #140, .T. ) ;
#162 = DATE_AND_TIME ( #69, #67 ) ;
#163 = PLANE ( 'NONE',  #145 ) ;
#164 = DESIGN_CONTEXT ( 'detailed design', #123, 'design' ) ;
#165 = APPROVAL_ROLE ( '' ) ;
#166 = VERTEX_POINT ( 'NONE', #74 ) ;
#167 = APPROVAL_STATUS ( 'not_yet_approved' ) ;
#168 = ADVANCED_FACE ( 'NONE', ( #141 ), #136, .T. ) ;
#169 = AXIS2_PLACEMENT_3D ( 'NONE', #20, #276, #203 ) ;
#170 = APPLICATION_PROTOCOL_DEFINITION ( 'international standard', 'config_control_design', 1994, #123 ) ;
#171 = ADVANCED_FACE ( 'NONE', ( #253, #300 ), #128, .T. ) ;
#172 = EDGE_LOOP ( 'NONE', ( #245 ) ) ;
#173 = MANIFOLD_SOLID_BREP ( 'Corps-Déplacer/Copier1[1]', #250 ) ;
#174 = PRODUCT_DEFINITION_SHAPE ( 'NONE', 'NONE',  #157 ) ;
#175 = DIRECTION ( 'NONE',  ( -3.491481338843133355E-15, 1.224646799147353207E-16, -1.000000000000000000 ) ) ;
#176 = ORIENTED_EDGE ( 'NONE', *, *, #57, .F. ) ;
#177 = AXIS2_PLACEMENT_3D ( 'NONE', #160, #235, #68 ) ;
#178 = ORIENTED_EDGE ( 'NONE', *, *, #215, .T. ) ;
#179 = DIRECTION ( 'NONE',  ( 4.275831445896958607E-31, 1.000000000000000000, 1.224646799147353207E-16 ) ) ;
#180 = ORIENTED_EDGE ( 'NONE', *, *, #215, .F. ) ;
#181 = DIRECTION ( 'NONE',  ( -3.491481338843133355E-15, 1.224646799147353207E-16, -1.000000000000000000 ) ) ;
#182 = FACE_OUTER_BOUND ( 'NONE', #172, .T. ) ;
#183 = DIRECTION ( 'NONE',  ( 0.0000000000000000000, 0.0000000000000000000, 1.000000000000000000 ) ) ;
#184 = DIRECTION ( 'NONE',  ( -3.491481338843133355E-15, 1.224646799147353207E-16, -1.000000000000000000 ) ) ;
#185 = CARTESIAN_POINT ( 'NONE',  ( 0.0000000000000000000, 0.0000000000000000000, 0.0000000000000000000 ) ) ;
#186 = DIRECTION ( 'NONE',  ( 0.0000000000000000000, 1.000000000000000000, 0.0000000000000000000 ) ) ;
#187 = PERSON_AND_ORGANIZATION_ROLE ( 'creator' ) ;
#188 = VERTEX_POINT ( 'NONE', #92 ) ;
#189 =( NAMED_UNIT ( * ) PLANE_ANGLE_UNIT ( ) SI_UNIT ( $, .RADIAN. ) );
#190 = LOCAL_TIME ( 7, 45, 2.000000000000000000, #110 ) ;
#191 = DATE_TIME_ROLE ( 'classification_date' ) ;
#192 = CIRCLE ( 'NONE', #261, 1.200000000000001732 ) ;
#193 = ORIENTED_EDGE ( 'NONE', *, *, #197, .F. ) ;
#194 = APPROVAL_STATUS ( 'not_yet_approved' ) ;
#195 = EDGE_LOOP ( 'NONE', ( #126 ) ) ;
#196 = DIRECTION ( 'NONE',  ( -3.491481338843133355E-15, 1.224646799147353207E-16, -1.000000000000000000 ) ) ;
#197 = EDGE_CURVE ( 'NONE', #281, #281, #132, .T. ) ;
#198 = EDGE_LOOP ( 'NONE', ( #5 ) ) ;
#199 = PLANE ( 'NONE',  #7 ) ;
#200 = ORIENTED_EDGE ( 'NONE', *, *, #39, .F. ) ;
#201 = EDGE_LOOP ( 'NONE', ( #180 ) ) ;
#202 = EDGE_CURVE ( 'NONE', #2, #2, #293, .T. ) ;
#203 = DIRECTION ( 'NONE',  ( 0.0000000000000000000, -1.000000000000000000, 0.0000000000000000000 ) ) ;
#204 = CARTESIAN_POINT ( 'NONE',  ( 6.284666409917640040E-14, -2.204364238465235428E-15, 18.00000000000000000 ) ) ;
#205 =( LENGTH_UNIT ( ) NAMED_UNIT ( * ) SI_UNIT ( .MILLI., .METRE. ) );
#206 = EDGE_CURVE ( 'NONE', #19, #19, #40, .T. ) ;
#207 = FACE_OUTER_BOUND ( 'NONE', #270, .T. ) ;
#208 = CIRCLE ( 'NONE', #177, 0.8953844939755818411 ) ;
#209 = PERSON_AND_ORGANIZATION_ROLE ( 'design_owner' ) ;
#210 = DIRECTION ( 'NONE',  ( 0.0000000000000000000, 1.000000000000000000, 0.0000000000000000000 ) ) ;
#211 = CARTESIAN_POINT ( 'NONE',  ( 6.284666409917640040E-14, 0.8649999999999977707, 18.00000000000000000 ) ) ;
#212 = AXIS2_PLACEMENT_3D ( 'NONE', #248, #84, #111 ) ;
#213 = TOROIDAL_SURFACE ( 'NONE', #288, 2.864999999999999769, 2.000000000000000000 ) ;
#214 = PERSON_AND_ORGANIZATION ( #124, #106 ) ;
#215 = EDGE_CURVE ( 'NONE', #112, #112, #60, .T. ) ;
#216 = CIRCLE ( 'NONE', #98, 1.018499999999998851 ) ;
#217 = ADVANCED_FACE ( 'NONE', ( #18, #207 ), #237, .T. ) ;
#218 = ORIENTED_EDGE ( 'NONE', *, *, #202, .T. ) ;
#219 = PRODUCT ( '63271', '63271', '', ( #93 ) ) ;
#220 = ORIENTED_EDGE ( 'NONE', *, *, #242, .F. ) ;
#221 = ADVANCED_FACE ( 'NONE', ( #130, #87 ), #15, .T. ) ;
#222 = EDGE_LOOP ( 'NONE', ( #12 ) ) ;
#223 = AXIS2_PLACEMENT_3D ( 'NONE', #297, #183, #22 ) ;
#224 = ORIENTED_EDGE ( 'NONE', *, *, #206, .T. ) ;
#225 = ORIENTED_EDGE ( 'NONE', *, *, #295, .F. ) ;
#226 = EDGE_LOOP ( 'NONE', ( #178 ) ) ;
#227 = DIRECTION ( 'NONE',  ( 4.275831445896957731E-31, 1.000000000000000000, 1.224646799147352961E-16 ) ) ;
#228 =( GEOMETRIC_REPRESENTATION_CONTEXT ( 3 ) GLOBAL_UNCERTAINTY_ASSIGNED_CONTEXT ( ( #26 ) ) GLOBAL_UNIT_ASSIGNED_CONTEXT ( ( #205, #189, #3 ) ) REPRESENTATION_CONTEXT ( 'NONE', 'WORKASPACE' ) );
#229 = DIRECTION ( 'NONE',  ( -4.275831445896958607E-31, -1.000000000000000000, -1.224646799147353207E-16 ) ) ;
#230 = CARTESIAN_POINT ( 'NONE',  ( 0.0000000000000000000, 0.8741624327025945274, 0.0000000000000000000 ) ) ;
#231 = FACE_OUTER_BOUND ( 'NONE', #97, .T. ) ;
#232 = APPLICATION_PROTOCOL_DEFINITION ( 'international standard', 'config_control_design', 1994, #62 ) ;
#233 = DIRECTION ( 'NONE',  ( -4.275831445896958607E-31, -1.000000000000000000, -1.224646799147353207E-16 ) ) ;
#234 = PERSON_AND_ORGANIZATION ( #124, #106 ) ;
#235 = DIRECTION ( 'NONE',  ( -3.491481338843133355E-15, 1.224646799147353207E-16, -1.000000000000000000 ) ) ;
#236 = APPROVAL_DATE_TIME ( #162, #34 ) ;
#237 = CONICAL_SURFACE ( 'NONE', #28, 1.018499999999998851, 0.5235987755982923764 ) ;
#238 = EDGE_LOOP ( 'NONE', ( #96 ) ) ;
#239 = AXIS2_PLACEMENT_3D ( 'NONE', #185, #279, #227 ) ;
#240 = ORIENTED_EDGE ( 'NONE', *, *, #242, .T. ) ;
#241 = EDGE_LOOP ( 'NONE', ( #52 ) ) ;
#242 = EDGE_CURVE ( 'NONE', #302, #302, #21, .T. ) ;
#243 = FACE_OUTER_BOUND ( 'NONE', #195, .T. ) ;
#244 = AXIS2_PLACEMENT_3D ( 'NONE', #29, #151, #37 ) ;
#245 = ORIENTED_EDGE ( 'NONE', *, *, #295, .T. ) ;
#246 = LOCAL_TIME ( 7, 45, 2.000000000000000000, #137 ) ;
#247 = FACE_OUTER_BOUND ( 'NONE', #226, .T. ) ;
#248 = CARTESIAN_POINT ( 'NONE',  ( 0.0000000000000000000, 0.0000000000000000000, 0.0000000000000000000 ) ) ;
#249 = DIRECTION ( 'NONE',  ( 0.0000000000000000000, 1.000000000000000000, 0.0000000000000000000 ) ) ;
#250 = CLOSED_SHELL ( 'NONE', ( #55, #31, #17, #32, #161, #108, #171, #4 ) ) ;
#251 = LOCAL_TIME ( 7, 45, 2.000000000000000000, #120 ) ;
#252 = CALENDAR_DATE ( 2021, 30, 11 ) ;
#253 = FACE_OUTER_BOUND ( 'NONE', #201, .T. ) ;
#254 = PERSON_AND_ORGANIZATION ( #124, #106 ) ;
#255 = CARTESIAN_POINT ( 'NONE',  ( -1.868885609285768852E-31, 6.555168300406019785E-33, -5.352701125720479588E-17 ) ) ;
#256 = DATE_AND_TIME ( #278, #190 ) ;
#257 = DIRECTION ( 'NONE',  ( 0.0000000000000000000, 1.000000000000000000, 0.0000000000000000000 ) ) ;
#258 = APPROVAL_ROLE ( '' ) ;
#259 = APPROVAL_STATUS ( 'not_yet_approved' ) ;
#260 = ORIENTED_EDGE ( 'NONE', *, *, #119, .F. ) ;
#261 = AXIS2_PLACEMENT_3D ( 'NONE', #129, #82, #61 ) ;
#262 = DATE_AND_TIME ( #144, #246 ) ;
#263 = SHAPE_DEFINITION_REPRESENTATION ( #174, #133 ) ;
#264 = EDGE_LOOP ( 'NONE', ( #125 ) ) ;
#265 = DATE_AND_TIME ( #77, #251 ) ;
#266 = PRODUCT_DEFINITION_FORMATION_WITH_SPECIFIED_SOURCE ( 'ANY', '', #219, .NOT_KNOWN. ) ;
#267 = ADVANCED_FACE ( 'NONE', ( #182 ), #163, .F. ) ;
#268 = EDGE_LOOP ( 'NONE', ( #260 ) ) ;
#269 = DIRECTION ( 'NONE',  ( 4.275831445896958607E-31, 1.000000000000000000, 1.224646799147353207E-16 ) ) ;
#270 = EDGE_LOOP ( 'NONE', ( #292 ) ) ;
#271 = AXIS2_PLACEMENT_3D ( 'NONE', #272, #291, #36 ) ;
#272 = CARTESIAN_POINT ( 'NONE',  ( 2.793185071074506684E-14, 7.637526693205492543E-33, 8.000000000000000000 ) ) ;
#273 = CARTESIAN_POINT ( 'NONE',  ( 1.735266225405037467E-13, -6.086494591762345225E-15, 49.70000000000000284 ) ) ;
#274 = DIRECTION ( 'NONE',  ( 3.491481338843133355E-15, -1.224646799147353207E-16, 1.000000000000000000 ) ) ;
#275 = PERSON_AND_ORGANIZATION ( #124, #106 ) ;
#276 = DIRECTION ( 'NONE',  ( 3.491481338843133355E-15, -1.224646799147353207E-16, 1.000000000000000000 ) ) ;
#277 = AXIS2_PLACEMENT_3D ( 'NONE', #273, #43, #257 ) ;
#278 = CALENDAR_DATE ( 2021, 30, 11 ) ;
#279 = DIRECTION ( 'NONE',  ( -3.491481338843133355E-15, 1.224646799147353207E-16, -1.000000000000000000 ) ) ;
#280 = VERTEX_POINT ( 'NONE', #72 ) ;
#281 = VERTEX_POINT ( 'NONE', #211 ) ;
#282 = AXIS2_PLACEMENT_3D ( 'NONE', #298, #85, #45 ) ;
#283 = CC_DESIGN_SECURITY_CLASSIFICATION ( #289, ( #266 ) ) ;
#284 = CC_DESIGN_DATE_AND_TIME_ASSIGNMENT ( #262, #191, ( #289 ) ) ;
#285 = APPROVAL_DATE_TIME ( #265, #100 ) ;
#286 = AXIS2_PLACEMENT_3D ( 'NONE', #33, #196, #105 ) ;
#287 = FACE_OUTER_BOUND ( 'NONE', #238, .T. ) ;
#288 = AXIS2_PLACEMENT_3D ( 'NONE', #79, #101, #269 ) ;
#289 = SECURITY_CLASSIFICATION ( '', '', #135 ) ;
#290 = FACE_OUTER_BOUND ( 'NONE', #53, .T. ) ;
#291 = DIRECTION ( 'NONE',  ( 3.491481338843133355E-15, -1.224646799147353207E-16, 1.000000000000000000 ) ) ;
#292 = ORIENTED_EDGE ( 'NONE', *, *, #39, .T. ) ;
#293 = CIRCLE ( 'NONE', #158, 1.018499999999999961 ) ;
#294 = FACE_BOUND ( 'NONE', #268, .T. ) ;
#295 = EDGE_CURVE ( 'NONE', #117, #117, #10, .T. ) ;
#296 = DIRECTION ( 'NONE',  ( 0.0000000000000000000, 1.000000000000000000, 0.0000000000000000000 ) ) ;
#297 = CARTESIAN_POINT ( 'NONE',  ( 0.0000000000000000000, 0.0000000000000000000, 0.0000000000000000000 ) ) ;
#298 = CARTESIAN_POINT ( 'NONE',  ( -3.737771218571537704E-31, 1.311033660081203957E-32, -1.070540225144095918E-16 ) ) ;
#299 = APPROVAL_DATE_TIME ( #91, #153 ) ;
#300 = FACE_BOUND ( 'NONE', #13, .T. ) ;
#301 = CC_DESIGN_APPROVAL ( #100, ( #289 ) ) ;
#302 = VERTEX_POINT ( 'NONE', #25 ) ;
#303 = DIRECTION ( 'NONE',  ( -3.781894834339200650E-31, -1.000000000000000000, -1.064508760417776734E-16 ) ) ;
ENDSEC;
END-ISO-10303-21;
