ISO-10303-21;
HEADER;
FILE_DESCRIPTION (( 'STEP AP203' ),
    '1' );
FILE_NAME ('632.step',
    '2021-12-06T12:59:58',
    ( '' ),
    ( '' ),
    'SwSTEP 2.0',
    'SolidWorks 2019',
    '' );
FILE_SCHEMA (( 'CONFIG_CONTROL_DESIGN' ));
ENDSEC;

DATA;
#1 = ADVANCED_FACE ( 'NONE', ( #12, #43 ), #96, .T. ) ;
#2 = APPROVAL_PERSON_ORGANIZATION ( #121, #139, #11 ) ;
#3 = PLANE ( 'NONE',  #64 ) ;
#4 = CYLINDRICAL_SURFACE ( 'NONE', #39, 12.50000000000000000 ) ;
#5 = EDGE_LOOP ( 'NONE', ( #6 ) ) ;
#6 = ORIENTED_EDGE ( 'NONE', *, *, #19, .F. ) ;
#7 = CARTESIAN_POINT ( 'NONE',  ( 0.0000000000000000000, 12.50000000000000000, 0.0000000000000000000 ) ) ;
#8 =( LENGTH_UNIT ( ) NAMED_UNIT ( * ) SI_UNIT ( .MILLI., .METRE. ) );
#9 = APPROVAL ( #100, 'UNSPECIFIED' ) ;
#10 = PERSON_AND_ORGANIZATION ( #162, #105 ) ;
#11 = APPROVAL_ROLE ( '' ) ;
#12 = FACE_BOUND ( 'NONE', #111, .T. ) ;
#13 = DIRECTION ( 'NONE',  ( 4.275831445896958607E-31, 1.000000000000000000, 1.224646799147353207E-16 ) ) ;
#14 = FACE_BOUND ( 'NONE', #31, .T. ) ;
#15 = CC_DESIGN_PERSON_AND_ORGANIZATION_ASSIGNMENT ( #21, #78, ( #143 ) ) ;
#16 = EDGE_LOOP ( 'NONE', ( #148 ) ) ;
#17 = DIRECTION ( 'NONE',  ( 0.0000000000000000000, 0.0000000000000000000, 1.000000000000000000 ) ) ;
#18 = COORDINATED_UNIVERSAL_TIME_OFFSET ( 1, 0, .AHEAD. ) ;
#19 = EDGE_CURVE ( 'NONE', #87, #87, #61, .T. ) ;
#20 = COORDINATED_UNIVERSAL_TIME_OFFSET ( 1, 0, .AHEAD. ) ;
#21 = PERSON_AND_ORGANIZATION ( #162, #105 ) ;
#22 = PERSON_AND_ORGANIZATION ( #162, #105 ) ;
#23 = CC_DESIGN_PERSON_AND_ORGANIZATION_ASSIGNMENT ( #165, #49, ( #133 ) ) ;
#24 = LOCAL_TIME ( 13, 59, 58.00000000000000000, #62 ) ;
#25 = CC_DESIGN_PERSON_AND_ORGANIZATION_ASSIGNMENT ( #33, #47, ( #168 ) ) ;
#26 =( GEOMETRIC_REPRESENTATION_CONTEXT ( 3 ) GLOBAL_UNCERTAINTY_ASSIGNED_CONTEXT ( ( #91 ) ) GLOBAL_UNIT_ASSIGNED_CONTEXT ( ( #8, #88, #57 ) ) REPRESENTATION_CONTEXT ( 'NONE', 'WORKASPACE' ) );
#27 = CARTESIAN_POINT ( 'NONE',  ( 2.793185071074505107E-15, 4.000000000000000000, 0.7999999999999994893 ) ) ;
#28 = EDGE_LOOP ( 'NONE', ( #44 ) ) ;
#29 = LOCAL_TIME ( 13, 59, 58.00000000000000000, #18 ) ;
#30 = CARTESIAN_POINT ( 'NONE',  ( 0.0000000000000000000, 0.0000000000000000000, 0.0000000000000000000 ) ) ;
#31 = EDGE_LOOP ( 'NONE', ( #67 ) ) ;
#32 = ORIENTED_EDGE ( 'NONE', *, *, #109, .F. ) ;
#33 = PERSON_AND_ORGANIZATION ( #162, #105 ) ;
#34 = AXIS2_PLACEMENT_3D ( 'NONE', #51, #17, #102 ) ;
#35 = DATE_AND_TIME ( #114, #24 ) ;
#36 = DIRECTION ( 'NONE',  ( 3.851859888774471706E-31, 1.000000000000000000, 1.355252715606880543E-16 ) ) ;
#37 = APPROVAL_DATE_TIME ( #40, #92 ) ;
#38 = CALENDAR_DATE ( 2021, 6, 12 ) ;
#39 = AXIS2_PLACEMENT_3D ( 'NONE', #82, #108, #13 ) ;
#40 = DATE_AND_TIME ( #77, #164 ) ;
#41 = COORDINATED_UNIVERSAL_TIME_OFFSET ( 1, 0, .AHEAD. ) ;
#42 = EDGE_CURVE ( 'NONE', #124, #124, #136, .T. ) ;
#43 = FACE_OUTER_BOUND ( 'NONE', #5, .T. ) ;
#44 = ORIENTED_EDGE ( 'NONE', *, *, #109, .T. ) ;
#45 = ORIENTED_EDGE ( 'NONE', *, *, #134, .T. ) ;
#46 = DIRECTION ( 'NONE',  ( -3.491481338843133355E-15, 1.224646799147353207E-16, -1.000000000000000000 ) ) ;
#47 = PERSON_AND_ORGANIZATION_ROLE ( 'design_owner' ) ;
#48 = LOCAL_TIME ( 13, 59, 58.00000000000000000, #20 ) ;
#49 = PERSON_AND_ORGANIZATION_ROLE ( 'design_supplier' ) ;
#50 = ADVANCED_FACE ( 'NONE', ( #145, #119 ), #104, .F. ) ;
#51 = CARTESIAN_POINT ( 'NONE',  ( 0.0000000000000000000, 0.0000000000000000000, 0.0000000000000000000 ) ) ;
#52 = AXIS2_PLACEMENT_3D ( 'NONE', #27, #83, #147 ) ;
#53 = CC_DESIGN_SECURITY_CLASSIFICATION ( #143, ( #133 ) ) ;
#54 = CARTESIAN_POINT ( 'NONE',  ( -1.710332578358783092E-30, 5.999039130647430431E-32, -4.898587196589412829E-16 ) ) ;
#55 = DIRECTION ( 'NONE',  ( -3.491481338843133355E-15, 1.224646799147353207E-16, -1.000000000000000000 ) ) ;
#56 = ORIENTED_EDGE ( 'NONE', *, *, #19, .T. ) ;
#57 =( NAMED_UNIT ( * ) SI_UNIT ( $, .STERADIAN. ) SOLID_ANGLE_UNIT ( ) );
#58 = APPLICATION_CONTEXT ( 'configuration controlled 3d designs of mechanical parts and assemblies' ) ;
#59 = DIRECTION ( 'NONE',  ( -3.491481338843133355E-15, 1.224646799147353207E-16, -1.000000000000000000 ) ) ;
#60 = PERSON_AND_ORGANIZATION ( #162, #105 ) ;
#61 = CIRCLE ( 'NONE', #110, 12.50000000000000000 ) ;
#62 = COORDINATED_UNIVERSAL_TIME_OFFSET ( 1, 0, .AHEAD. ) ;
#63 = APPROVAL_DATE_TIME ( #140, #139 ) ;
#64 = AXIS2_PLACEMENT_3D ( 'NONE', #118, #55, #160 ) ;
#65 = PRODUCT_RELATED_PRODUCT_CATEGORY ( 'detail', '', ( #168 ) ) ;
#66 = DIRECTION ( 'NONE',  ( -3.491481338843133355E-15, 1.224646799147353207E-16, -1.000000000000000000 ) ) ;
#67 = ORIENTED_EDGE ( 'NONE', *, *, #42, .F. ) ;
#68 = APPLICATION_CONTEXT ( 'configuration controlled 3d designs of mechanical parts and assemblies' ) ;
#69 = ADVANCED_FACE ( 'NONE', ( #93, #120 ), #4, .T. ) ;
#70 = APPROVAL_PERSON_ORGANIZATION ( #22, #92, #115 ) ;
#71 = EDGE_LOOP ( 'NONE', ( #158 ) ) ;
#72 = CC_DESIGN_APPROVAL ( #139, ( #152 ) ) ;
#73 = APPLICATION_PROTOCOL_DEFINITION ( 'international standard', 'config_control_design', 1994, #58 ) ;
#74 = PERSON_AND_ORGANIZATION ( #162, #105 ) ;
#75 = APPROVAL_DATE_TIME ( #35, #9 ) ;
#76 = VERTEX_POINT ( 'NONE', #7 ) ;
#77 = CALENDAR_DATE ( 2021, 6, 12 ) ;
#78 = PERSON_AND_ORGANIZATION_ROLE ( 'classification_officer' ) ;
#79 = CC_DESIGN_PERSON_AND_ORGANIZATION_ASSIGNMENT ( #74, #166, ( #152 ) ) ;
#80 = CIRCLE ( 'NONE', #95, 4.000000000000000000 ) ;
#81 = DIRECTION ( 'NONE',  ( 4.275831445896958607E-31, 1.000000000000000000, 1.224646799147353207E-16 ) ) ;
#82 = CARTESIAN_POINT ( 'NONE',  ( 0.0000000000000000000, 0.0000000000000000000, 0.0000000000000000000 ) ) ;
#83 = DIRECTION ( 'NONE',  ( 3.491481338843133355E-15, -1.224646799147353207E-16, 1.000000000000000000 ) ) ;
#84 = AXIS2_PLACEMENT_3D ( 'NONE', #54, #66, #81 ) ;
#85 = VERTEX_POINT ( 'NONE', #163 ) ;
#86 = CARTESIAN_POINT ( 'NONE',  ( 3.421138828918010427E-46, 4.000000000000000000, 0.0000000000000000000 ) ) ;
#87 = VERTEX_POINT ( 'NONE', #151 ) ;
#88 =( NAMED_UNIT ( * ) PLANE_ANGLE_UNIT ( ) SI_UNIT ( $, .RADIAN. ) );
#89 = CALENDAR_DATE ( 2021, 6, 12 ) ;
#90 = CC_DESIGN_APPROVAL ( #92, ( #143 ) ) ;
#91 = UNCERTAINTY_MEASURE_WITH_UNIT (LENGTH_MEASURE( 1.000000000000000082E-05 ), #8, 'distance_accuracy_value', 'NONE');
#92 = APPROVAL ( #142, 'UNSPECIFIED' ) ;
#93 = FACE_OUTER_BOUND ( 'NONE', #132, .T. ) ;
#94 = DIRECTION ( 'NONE',  ( 4.275831445896958607E-31, 1.000000000000000000, 1.224646799147353207E-16 ) ) ;
#95 = AXIS2_PLACEMENT_3D ( 'NONE', #138, #59, #36 ) ;
#96 = PLANE ( 'NONE',  #52 ) ;
#97 = DIRECTION ( 'NONE',  ( 4.314083075427408311E-31, 1.000000000000000000, 1.214306433183764966E-16 ) ) ;
#98 = MECHANICAL_CONTEXT ( 'NONE', #58, 'mechanical' ) ;
#99 = CC_DESIGN_APPROVAL ( #9, ( #133 ) ) ;
#100 = APPROVAL_STATUS ( 'not_yet_approved' ) ;
#101 = DATE_TIME_ROLE ( 'creation_date' ) ;
#102 = DIRECTION ( 'NONE',  ( 1.000000000000000000, 0.0000000000000000000, 0.0000000000000000000 ) ) ;
#103 = ADVANCED_FACE ( 'NONE', ( #144, #14 ), #3, .T. ) ;
#104 = CYLINDRICAL_SURFACE ( 'NONE', #156, 4.000000000000000000 ) ;
#105 = ORGANIZATION ( 'UNSPECIFIED', 'UNSPECIFIED', '' ) ;
#106 = MANIFOLD_SOLID_BREP ( 'Corps-Déplacer/Copier1', #161 ) ;
#107 = CARTESIAN_POINT ( 'NONE',  ( -5.344789307371198171E-30, 1.874699728327322119E-31, -1.530808498934191521E-15 ) ) ;
#108 = DIRECTION ( 'NONE',  ( -3.491481338843133355E-15, 1.224646799147353207E-16, -1.000000000000000000 ) ) ;
#109 = EDGE_CURVE ( 'NONE', #76, #76, #155, .T. ) ;
#110 = AXIS2_PLACEMENT_3D ( 'NONE', #116, #46, #97 ) ;
#111 = EDGE_LOOP ( 'NONE', ( #45 ) ) ;
#112 = DATE_AND_TIME ( #123, #48 ) ;
#113 = PERSON_AND_ORGANIZATION_ROLE ( 'creator' ) ;
#114 = CALENDAR_DATE ( 2021, 6, 12 ) ;
#115 = APPROVAL_ROLE ( '' ) ;
#116 = CARTESIAN_POINT ( 'NONE',  ( 2.793185071074501557E-15, -9.797174393178807662E-17, 0.7999999999999984901 ) ) ;
#117 = LOCAL_TIME ( 13, 59, 58.00000000000000000, #41 ) ;
#118 = CARTESIAN_POINT ( 'NONE',  ( -1.817228364506207364E-30, 4.000000000000000000, -5.204748896376250699E-16 ) ) ;
#119 = FACE_OUTER_BOUND ( 'NONE', #16, .T. ) ;
#120 = FACE_OUTER_BOUND ( 'NONE', #129, .T. ) ;
#121 = PERSON_AND_ORGANIZATION ( #162, #105 ) ;
#122 = CC_DESIGN_DATE_AND_TIME_ASSIGNMENT ( #127, #141, ( #143 ) ) ;
#123 = CALENDAR_DATE ( 2021, 6, 12 ) ;
#124 = VERTEX_POINT ( 'NONE', #86 ) ;
#125 = APPROVAL_PERSON_ORGANIZATION ( #10, #9, #149 ) ;
#126 = APPLICATION_PROTOCOL_DEFINITION ( 'international standard', 'config_control_design', 1994, #68 ) ;
#127 = DATE_AND_TIME ( #89, #117 ) ;
#128 = PRODUCT_DEFINITION_SHAPE ( 'NONE', 'NONE',  #152 ) ;
#129 = EDGE_LOOP ( 'NONE', ( #32 ) ) ;
#130 = DESIGN_CONTEXT ( 'detailed design', #68, 'design' ) ;
#131 = ADVANCED_BREP_SHAPE_REPRESENTATION ( '632', ( #106, #34 ), #26 ) ;
#132 = EDGE_LOOP ( 'NONE', ( #56 ) ) ;
#133 = PRODUCT_DEFINITION_FORMATION_WITH_SPECIFIED_SOURCE ( 'ANY', '', #168, .NOT_KNOWN. ) ;
#134 = EDGE_CURVE ( 'NONE', #85, #85, #80, .T. ) ;
#135 = DIRECTION ( 'NONE',  ( 4.275831445896958607E-31, 1.000000000000000000, 1.224646799147353207E-16 ) ) ;
#136 = CIRCLE ( 'NONE', #84, 4.000000000000000000 ) ;
#137 = APPROVAL_STATUS ( 'not_yet_approved' ) ;
#138 = CARTESIAN_POINT ( 'NONE',  ( 2.793185071074505107E-15, -9.797174393178818755E-17, 0.7999999999999994893 ) ) ;
#139 = APPROVAL ( #137, 'UNSPECIFIED' ) ;
#140 = DATE_AND_TIME ( #38, #29 ) ;
#141 = DATE_TIME_ROLE ( 'classification_date' ) ;
#142 = APPROVAL_STATUS ( 'not_yet_approved' ) ;
#143 = SECURITY_CLASSIFICATION ( '', '', #154 ) ;
#144 = FACE_OUTER_BOUND ( 'NONE', #28, .T. ) ;
#145 = FACE_OUTER_BOUND ( 'NONE', #71, .T. ) ;
#146 = CC_DESIGN_PERSON_AND_ORGANIZATION_ASSIGNMENT ( #60, #113, ( #133 ) ) ;
#147 = DIRECTION ( 'NONE',  ( -4.275831445896958607E-31, -1.000000000000000000, -1.224646799147353207E-16 ) ) ;
#148 = ORIENTED_EDGE ( 'NONE', *, *, #134, .F. ) ;
#149 = APPROVAL_ROLE ( '' ) ;
#150 = COORDINATED_UNIVERSAL_TIME_OFFSET ( 1, 0, .AHEAD. ) ;
#151 = CARTESIAN_POINT ( 'NONE',  ( 2.793185071074507079E-15, 12.50000000000000000, 0.8000000000000000444 ) ) ;
#152 = PRODUCT_DEFINITION ( 'UNKNOWN', '', #133, #130 ) ;
#153 = SHAPE_DEFINITION_REPRESENTATION ( #128, #131 ) ;
#154 = SECURITY_CLASSIFICATION_LEVEL ( 'unclassified' ) ;
#155 = CIRCLE ( 'NONE', #167, 12.50000000000000000 ) ;
#156 = AXIS2_PLACEMENT_3D ( 'NONE', #30, #157, #135 ) ;
#157 = DIRECTION ( 'NONE',  ( -3.491481338843133355E-15, 1.224646799147353207E-16, -1.000000000000000000 ) ) ;
#158 = ORIENTED_EDGE ( 'NONE', *, *, #42, .T. ) ;
#159 = DIRECTION ( 'NONE',  ( -3.491481338843133355E-15, 1.224646799147353207E-16, -1.000000000000000000 ) ) ;
#160 = DIRECTION ( 'NONE',  ( 4.275831445896958607E-31, 1.000000000000000000, 1.224646799147353207E-16 ) ) ;
#161 = CLOSED_SHELL ( 'NONE', ( #103, #69, #1, #50 ) ) ;
#162 = PERSON ( 'UNSPECIFIED', 'UNSPECIFIED', 'UNSPECIFIED', ('UNSPECIFIED'), ('UNSPECIFIED'), ('UNSPECIFIED') ) ;
#163 = CARTESIAN_POINT ( 'NONE',  ( 2.793185071074506684E-15, 4.000000000000000000, 0.8000000000000000444 ) ) ;
#164 = LOCAL_TIME ( 13, 59, 58.00000000000000000, #150 ) ;
#165 = PERSON_AND_ORGANIZATION ( #162, #105 ) ;
#166 = PERSON_AND_ORGANIZATION_ROLE ( 'creator' ) ;
#167 = AXIS2_PLACEMENT_3D ( 'NONE', #107, #159, #94 ) ;
#168 = PRODUCT ( '632', '632', '', ( #98 ) ) ;
#169 = CC_DESIGN_DATE_AND_TIME_ASSIGNMENT ( #112, #101, ( #152 ) ) ;
ENDSEC;
END-ISO-10303-21;
