ISO-10303-21;
HEADER;
FILE_DESCRIPTION (( 'STEP AP203' ),
    '1' );
FILE_NAME ('630.step',
    '2021-12-06T12:59:57',
    ( '' ),
    ( '' ),
    'SwSTEP 2.0',
    'SolidWorks 2019',
    '' );
FILE_SCHEMA (( 'CONFIG_CONTROL_DESIGN' ));
ENDSEC;

DATA;
#1 = DATE_AND_TIME ( #163, #113 ) ;
#2 = SECURITY_CLASSIFICATION_LEVEL ( 'unclassified' ) ;
#3 = PERSON_AND_ORGANIZATION_ROLE ( 'creator' ) ;
#4 = PERSON_AND_ORGANIZATION ( #131, #7 ) ;
#5 = EDGE_LOOP ( 'NONE', ( #43 ) ) ;
#6 = CC_DESIGN_APPROVAL ( #40, ( #80 ) ) ;
#7 = ORGANIZATION ( 'UNSPECIFIED', 'UNSPECIFIED', '' ) ;
#8 = FACE_OUTER_BOUND ( 'NONE', #27, .T. ) ;
#9 = AXIS2_PLACEMENT_3D ( 'NONE', #16, #106, #37 ) ;
#10 = CC_DESIGN_PERSON_AND_ORGANIZATION_ASSIGNMENT ( #92, #105, ( #80 ) ) ;
#11 = FACE_OUTER_BOUND ( 'NONE', #115, .T. ) ;
#12 = DIRECTION ( 'NONE',  ( 5.701108594529279018E-31, 1.000000000000000000, 1.632862398863138020E-16 ) ) ;
#13 = CARTESIAN_POINT ( 'NONE',  ( 2.094888803305879619E-15, 12.50000000000000000, 0.5999999999999999778 ) ) ;
#14 = APPROVAL ( #96, 'UNSPECIFIED' ) ;
#15 = APPROVAL_DATE_TIME ( #121, #40 ) ;
#16 = CARTESIAN_POINT ( 'NONE',  ( 0.0000000000000000000, 0.0000000000000000000, 0.0000000000000000000 ) ) ;
#17 = DATE_AND_TIME ( #64, #128 ) ;
#18 = CLOSED_SHELL ( 'NONE', ( #48, #152, #68, #110 ) ) ;
#19 = APPROVAL_PERSON_ORGANIZATION ( #103, #40, #35 ) ;
#20 = ORIENTED_EDGE ( 'NONE', *, *, #143, .T. ) ;
#21 = EDGE_CURVE ( 'NONE', #169, #169, #41, .T. ) ;
#22 = FACE_OUTER_BOUND ( 'NONE', #54, .T. ) ;
#23 = CC_DESIGN_SECURITY_CLASSIFICATION ( #147, ( #45 ) ) ;
#24 = COORDINATED_UNIVERSAL_TIME_OFFSET ( 1, 0, .AHEAD. ) ;
#25 = COORDINATED_UNIVERSAL_TIME_OFFSET ( 1, 0, .AHEAD. ) ;
#26 = PERSON_AND_ORGANIZATION ( #131, #7 ) ;
#27 = EDGE_LOOP ( 'NONE', ( #28 ) ) ;
#28 = ORIENTED_EDGE ( 'NONE', *, *, #70, .T. ) ;
#29 = DIRECTION ( 'NONE',  ( 5.777789833161707559E-31, 1.000000000000000000, 1.626303258728256651E-16 ) ) ;
#30 = CARTESIAN_POINT ( 'NONE',  ( 0.0000000000000000000, 0.0000000000000000000, 0.0000000000000000000 ) ) ;
#31 = DIRECTION ( 'NONE',  ( 5.701108594529279018E-31, 1.000000000000000000, 1.632862398863138020E-16 ) ) ;
#32 = CYLINDRICAL_SURFACE ( 'NONE', #101, 4.000000000000000000 ) ;
#33 = APPLICATION_CONTEXT ( 'configuration controlled 3d designs of mechanical parts and assemblies' ) ;
#34 = ADVANCED_BREP_SHAPE_REPRESENTATION ( '630', ( #160, #9 ), #122 ) ;
#35 = APPROVAL_ROLE ( '' ) ;
#36 = EDGE_CURVE ( 'NONE', #125, #125, #65, .T. ) ;
#37 = DIRECTION ( 'NONE',  ( 1.000000000000000000, 0.0000000000000000000, 0.0000000000000000000 ) ) ;
#38 = AXIS2_PLACEMENT_3D ( 'NONE', #129, #57, #29 ) ;
#39 = COORDINATED_UNIVERSAL_TIME_OFFSET ( 1, 0, .AHEAD. ) ;
#40 = APPROVAL ( #130, 'UNSPECIFIED' ) ;
#41 = CIRCLE ( 'NONE', #56, 4.000000000000000000 ) ;
#42 = DIRECTION ( 'NONE',  ( -3.491481338843133355E-15, 1.632862398863137774E-16, -1.000000000000000000 ) ) ;
#43 = ORIENTED_EDGE ( 'NONE', *, *, #70, .F. ) ;
#44 = FACE_BOUND ( 'NONE', #153, .T. ) ;
#45 = PRODUCT_DEFINITION_FORMATION_WITH_SPECIFIED_SOURCE ( 'ANY', '', #136, .NOT_KNOWN. ) ;
#46 = CARTESIAN_POINT ( 'NONE',  ( 0.0000000000000000000, 4.000000000000000000, 0.0000000000000000000 ) ) ;
#47 = DIRECTION ( 'NONE',  ( 5.701108594529279018E-31, 1.000000000000000000, 1.632862398863137774E-16 ) ) ;
#48 = ADVANCED_FACE ( 'NONE', ( #8, #44 ), #87, .T. ) ;
#49 = PERSON_AND_ORGANIZATION ( #131, #7 ) ;
#50 = APPROVAL_PERSON_ORGANIZATION ( #51, #14, #151 ) ;
#51 = PERSON_AND_ORGANIZATION ( #131, #7 ) ;
#52 = CC_DESIGN_PERSON_AND_ORGANIZATION_ASSIGNMENT ( #49, #119, ( #147 ) ) ;
#53 = CC_DESIGN_DATE_AND_TIME_ASSIGNMENT ( #109, #93, ( #80 ) ) ;
#54 = EDGE_LOOP ( 'NONE', ( #72 ) ) ;
#55 = CC_DESIGN_DATE_AND_TIME_ASSIGNMENT ( #1, #95, ( #147 ) ) ;
#56 = AXIS2_PLACEMENT_3D ( 'NONE', #166, #42, #12 ) ;
#57 = DIRECTION ( 'NONE',  ( -3.491481338843133355E-15, 1.632862398863137774E-16, -1.000000000000000000 ) ) ;
#58 = DIRECTION ( 'NONE',  ( -5.701108594529279018E-31, -1.000000000000000000, -1.632862398863137774E-16 ) ) ;
#59 = FACE_OUTER_BOUND ( 'NONE', #111, .T. ) ;
#60 = DIRECTION ( 'NONE',  ( -3.491481338843133355E-15, 1.632862398863137774E-16, -1.000000000000000000 ) ) ;
#61 =( NAMED_UNIT ( * ) PLANE_ANGLE_UNIT ( ) SI_UNIT ( $, .RADIAN. ) );
#62 = PERSON_AND_ORGANIZATION_ROLE ( 'design_supplier' ) ;
#63 = UNCERTAINTY_MEASURE_WITH_UNIT (LENGTH_MEASURE( 1.000000000000000082E-05 ), #142, 'distance_accuracy_value', 'NONE');
#64 = CALENDAR_DATE ( 2021, 6, 12 ) ;
#65 = CIRCLE ( 'NONE', #146, 12.50000000000000000 ) ;
#66 = PERSON_AND_ORGANIZATION ( #131, #7 ) ;
#67 = PERSON_AND_ORGANIZATION_ROLE ( 'design_owner' ) ;
#68 = ADVANCED_FACE ( 'NONE', ( #118, #11 ), #157, .T. ) ;
#69 = ORIENTED_EDGE ( 'NONE', *, *, #36, .T. ) ;
#70 = EDGE_CURVE ( 'NONE', #102, #102, #165, .T. ) ;
#71 = ORIENTED_EDGE ( 'NONE', *, *, #143, .F. ) ;
#72 = ORIENTED_EDGE ( 'NONE', *, *, #21, .T. ) ;
#73 = CARTESIAN_POINT ( 'NONE',  ( 2.094888803305877647E-15, 4.000000000000000000, 0.5999999999999993117 ) ) ;
#74 = CARTESIAN_POINT ( 'NONE',  ( 2.094888803305872519E-15, -9.797174393178792870E-17, 0.5999999999999978684 ) ) ;
#75 = PRODUCT_RELATED_PRODUCT_CATEGORY ( 'detail', '', ( #136 ) ) ;
#76 = DIRECTION ( 'NONE',  ( 3.491481338843133355E-15, -1.632862398863137774E-16, 1.000000000000000000 ) ) ;
#77 = DIRECTION ( 'NONE',  ( -3.491481338843133355E-15, 1.632862398863137774E-16, -1.000000000000000000 ) ) ;
#78 = CALENDAR_DATE ( 2021, 6, 12 ) ;
#79 = COORDINATED_UNIVERSAL_TIME_OFFSET ( 1, 0, .AHEAD. ) ;
#80 = PRODUCT_DEFINITION ( 'UNKNOWN', '', #45, #91 ) ;
#81 = MECHANICAL_CONTEXT ( 'NONE', #158, 'mechanical' ) ;
#82 = APPROVAL_PERSON_ORGANIZATION ( #66, #167, #148 ) ;
#83 = EDGE_LOOP ( 'NONE', ( #69 ) ) ;
#84 = CC_DESIGN_PERSON_AND_ORGANIZATION_ASSIGNMENT ( #4, #62, ( #45 ) ) ;
#85 = FACE_OUTER_BOUND ( 'NONE', #83, .T. ) ;
#86 = LOCAL_TIME ( 13, 59, 57.00000000000000000, #25 ) ;
#87 = PLANE ( 'NONE',  #162 ) ;
#88 = CYLINDRICAL_SURFACE ( 'NONE', #154, 12.50000000000000000 ) ;
#89 = VERTEX_POINT ( 'NONE', #145 ) ;
#90 =( NAMED_UNIT ( * ) SI_UNIT ( $, .STERADIAN. ) SOLID_ANGLE_UNIT ( ) );
#91 = DESIGN_CONTEXT ( 'detailed design', #33, 'design' ) ;
#92 = PERSON_AND_ORGANIZATION ( #131, #7 ) ;
#93 = DATE_TIME_ROLE ( 'creation_date' ) ;
#94 = CC_DESIGN_APPROVAL ( #167, ( #45 ) ) ;
#95 = DATE_TIME_ROLE ( 'classification_date' ) ;
#96 = APPROVAL_STATUS ( 'not_yet_approved' ) ;
#97 = ORIENTED_EDGE ( 'NONE', *, *, #36, .F. ) ;
#98 = ORIENTED_EDGE ( 'NONE', *, *, #21, .F. ) ;
#99 = CARTESIAN_POINT ( 'NONE',  ( 0.0000000000000000000, 12.50000000000000000, 0.0000000000000000000 ) ) ;
#100 = DIRECTION ( 'NONE',  ( 5.701108594529279894E-31, 1.000000000000000000, 1.632862398863137774E-16 ) ) ;
#101 = AXIS2_PLACEMENT_3D ( 'NONE', #30, #77, #31 ) ;
#102 = VERTEX_POINT ( 'NONE', #99 ) ;
#103 = PERSON_AND_ORGANIZATION ( #131, #7 ) ;
#104 = AXIS2_PLACEMENT_3D ( 'NONE', #73, #76, #58 ) ;
#105 = PERSON_AND_ORGANIZATION_ROLE ( 'creator' ) ;
#106 = DIRECTION ( 'NONE',  ( 0.0000000000000000000, 0.0000000000000000000, 1.000000000000000000 ) ) ;
#107 = CC_DESIGN_PERSON_AND_ORGANIZATION_ASSIGNMENT ( #120, #3, ( #45 ) ) ;
#108 = COORDINATED_UNIVERSAL_TIME_OFFSET ( 1, 0, .AHEAD. ) ;
#109 = DATE_AND_TIME ( #164, #137 ) ;
#110 = ADVANCED_FACE ( 'NONE', ( #22, #59 ), #32, .F. ) ;
#111 = EDGE_LOOP ( 'NONE', ( #71 ) ) ;
#112 = CC_DESIGN_PERSON_AND_ORGANIZATION_ASSIGNMENT ( #26, #67, ( #136 ) ) ;
#113 = LOCAL_TIME ( 13, 59, 57.00000000000000000, #108 ) ;
#114 = CARTESIAN_POINT ( 'NONE',  ( 0.0000000000000000000, 0.0000000000000000000, 0.0000000000000000000 ) ) ;
#115 = EDGE_LOOP ( 'NONE', ( #97 ) ) ;
#116 = CIRCLE ( 'NONE', #38, 4.000000000000000000 ) ;
#117 = DIRECTION ( 'NONE',  ( 5.701108594529279894E-31, 1.000000000000000000, 1.632862398863137774E-16 ) ) ;
#118 = FACE_BOUND ( 'NONE', #139, .T. ) ;
#119 = PERSON_AND_ORGANIZATION_ROLE ( 'classification_officer' ) ;
#120 = PERSON_AND_ORGANIZATION ( #131, #7 ) ;
#121 = DATE_AND_TIME ( #135, #86 ) ;
#122 =( GEOMETRIC_REPRESENTATION_CONTEXT ( 3 ) GLOBAL_UNCERTAINTY_ASSIGNED_CONTEXT ( ( #63 ) ) GLOBAL_UNIT_ASSIGNED_CONTEXT ( ( #142, #61, #90 ) ) REPRESENTATION_CONTEXT ( 'NONE', 'WORKASPACE' ) );
#123 = AXIS2_PLACEMENT_3D ( 'NONE', #159, #156, #100 ) ;
#124 = CC_DESIGN_APPROVAL ( #14, ( #147 ) ) ;
#125 = VERTEX_POINT ( 'NONE', #13 ) ;
#126 = DIRECTION ( 'NONE',  ( -3.491481338843133355E-15, 1.632862398863137774E-16, -1.000000000000000000 ) ) ;
#127 = DIRECTION ( 'NONE',  ( -3.491481338843133355E-15, 1.632862398863137774E-16, -1.000000000000000000 ) ) ;
#128 = LOCAL_TIME ( 13, 59, 57.00000000000000000, #79 ) ;
#129 = CARTESIAN_POINT ( 'NONE',  ( 2.094888803305877647E-15, -9.797174393178815057E-17, 0.5999999999999993117 ) ) ;
#130 = APPROVAL_STATUS ( 'not_yet_approved' ) ;
#131 = PERSON ( 'UNSPECIFIED', 'UNSPECIFIED', 'UNSPECIFIED', ('UNSPECIFIED'), ('UNSPECIFIED'), ('UNSPECIFIED') ) ;
#132 = APPROVAL_DATE_TIME ( #150, #14 ) ;
#133 = SHAPE_DEFINITION_REPRESENTATION ( #138, #34 ) ;
#134 = APPROVAL_DATE_TIME ( #17, #167 ) ;
#135 = CALENDAR_DATE ( 2021, 6, 12 ) ;
#136 = PRODUCT ( '630', '630', '', ( #81 ) ) ;
#137 = LOCAL_TIME ( 13, 59, 57.00000000000000000, #39 ) ;
#138 = PRODUCT_DEFINITION_SHAPE ( 'NONE', 'NONE',  #80 ) ;
#139 = EDGE_LOOP ( 'NONE', ( #20 ) ) ;
#140 = FACE_OUTER_BOUND ( 'NONE', #5, .T. ) ;
#141 = LOCAL_TIME ( 13, 59, 57.00000000000000000, #24 ) ;
#142 =( LENGTH_UNIT ( ) NAMED_UNIT ( * ) SI_UNIT ( .MILLI., .METRE. ) );
#143 = EDGE_CURVE ( 'NONE', #89, #89, #116, .T. ) ;
#144 = CARTESIAN_POINT ( 'NONE',  ( -2.422971152674943736E-30, 4.000000000000000000, -6.939665195168336895E-16 ) ) ;
#145 = CARTESIAN_POINT ( 'NONE',  ( 2.094888803305879619E-15, 4.000000000000000000, 0.5999999999999999778 ) ) ;
#146 = AXIS2_PLACEMENT_3D ( 'NONE', #74, #126, #168 ) ;
#147 = SECURITY_CLASSIFICATION ( '', '', #2 ) ;
#148 = APPROVAL_ROLE ( '' ) ;
#149 = APPROVAL_STATUS ( 'not_yet_approved' ) ;
#150 = DATE_AND_TIME ( #78, #141 ) ;
#151 = APPROVAL_ROLE ( '' ) ;
#152 = ADVANCED_FACE ( 'NONE', ( #85, #140 ), #88, .T. ) ;
#153 = EDGE_LOOP ( 'NONE', ( #98 ) ) ;
#154 = AXIS2_PLACEMENT_3D ( 'NONE', #114, #127, #117 ) ;
#155 = APPLICATION_PROTOCOL_DEFINITION ( 'international standard', 'config_control_design', 1994, #158 ) ;
#156 = DIRECTION ( 'NONE',  ( -3.491481338843133355E-15, 1.632862398863137774E-16, -1.000000000000000000 ) ) ;
#157 = PLANE ( 'NONE',  #104 ) ;
#158 = APPLICATION_CONTEXT ( 'configuration controlled 3d designs of mechanical parts and assemblies' ) ;
#159 = CARTESIAN_POINT ( 'NONE',  ( -7.126385743161599429E-30, 3.332799517026351407E-31, -2.041077998578922291E-15 ) ) ;
#160 = MANIFOLD_SOLID_BREP ( 'Corps-Déplacer/Copier1', #18 ) ;
#161 = APPLICATION_PROTOCOL_DEFINITION ( 'international standard', 'config_control_design', 1994, #33 ) ;
#162 = AXIS2_PLACEMENT_3D ( 'NONE', #144, #60, #47 ) ;
#163 = CALENDAR_DATE ( 2021, 6, 12 ) ;
#164 = CALENDAR_DATE ( 2021, 6, 12 ) ;
#165 = CIRCLE ( 'NONE', #123, 12.50000000000000000 ) ;
#166 = CARTESIAN_POINT ( 'NONE',  ( -2.280443437811711607E-30, 1.066495845448432442E-31, -6.531449595452552082E-16 ) ) ;
#167 = APPROVAL ( #149, 'UNSPECIFIED' ) ;
#168 = DIRECTION ( 'NONE',  ( 5.854827030937196993E-31, 1.000000000000000000, 1.647987302177966740E-16 ) ) ;
#169 = VERTEX_POINT ( 'NONE', #46 ) ;
ENDSEC;
END-ISO-10303-21;
