ISO-10303-21;
HEADER;
FILE_DESCRIPTION (( 'STEP AP203' ),
    '1' );
FILE_NAME ('62921.step',
    '2021-10-08T05:54:08',
    ( '' ),
    ( '' ),
    'SwSTEP 2.0',
    'SolidWorks 2019',
    '' );
FILE_SCHEMA (( 'CONFIG_CONTROL_DESIGN' ));
ENDSEC;

DATA;
#1 = APPROVAL_ROLE ( '' ) ;
#2 = CC_DESIGN_APPROVAL ( #118, ( #35 ) ) ;
#3 = DATE_TIME_ROLE ( 'classification_date' ) ;
#4 = UNCERTAINTY_MEASURE_WITH_UNIT (LENGTH_MEASURE( 1.000000000000000082E-05 ), #137, 'distance_accuracy_value', 'NONE');
#5 = CALENDAR_DATE ( 2021, 8, 10 ) ;
#6 = EDGE_LOOP ( 'NONE', ( #192 ) ) ;
#7 = AXIS2_PLACEMENT_3D ( 'NONE', #119, #83, #29 ) ;
#8 = EDGE_LOOP ( 'NONE', ( #59 ) ) ;
#9 = CARTESIAN_POINT ( 'NONE',  ( 3.257234243337363291E-14, -1.142483978304164464E-15, 9.329089653438087382 ) ) ;
#10 = DIRECTION ( 'NONE',  ( 3.491481338843133355E-15, -1.224646799147353207E-16, 1.000000000000000000 ) ) ;
#11 = PRODUCT ( '62921', '62921', '', ( #152 ) ) ;
#12 = CONICAL_SURFACE ( 'NONE', #28, 0.5599999999999988320, 1.047197551196592746 ) ;
#13 = FACE_OUTER_BOUND ( 'NONE', #46, .T. ) ;
#14 = DIRECTION ( 'NONE',  ( -3.491481338843133355E-15, 1.224646799147353207E-16, -1.000000000000000000 ) ) ;
#15 = DIRECTION ( 'NONE',  ( -3.491481338843133355E-15, 1.224646799147353207E-16, -1.000000000000000000 ) ) ;
#16 = APPLICATION_PROTOCOL_DEFINITION ( 'international standard', 'config_control_design', 1994, #50 ) ;
#17 = AXIS2_PLACEMENT_3D ( 'NONE', #213, #146, #77 ) ;
#18 = DIRECTION ( 'NONE',  ( -3.491481338843133355E-15, 1.224646799147353207E-16, -1.000000000000000000 ) ) ;
#19 = PERSON_AND_ORGANIZATION_ROLE ( 'classification_officer' ) ;
#20 = COORDINATED_UNIVERSAL_TIME_OFFSET ( 1, 0, .AHEAD. ) ;
#21 = EDGE_LOOP ( 'NONE', ( #162 ) ) ;
#22 = APPROVAL_DATE_TIME ( #104, #72 ) ;
#23 = DIRECTION ( 'NONE',  ( 4.275831445896958607E-31, 1.000000000000000000, 1.224646799147353207E-16 ) ) ;
#24 = DIRECTION ( 'NONE',  ( 0.0000000000000000000, -1.000000000000000000, 0.0000000000000000000 ) ) ;
#25 = EDGE_LOOP ( 'NONE', ( #178 ) ) ;
#26 = DIRECTION ( 'NONE',  ( 3.491481338843133355E-15, -1.224646799147353207E-16, 1.000000000000000000 ) ) ;
#27 = CC_DESIGN_PERSON_AND_ORGANIZATION_ASSIGNMENT ( #142, #175, ( #39 ) ) ;
#28 = AXIS2_PLACEMENT_3D ( 'NONE', #131, #26, #199 ) ;
#29 = DIRECTION ( 'NONE',  ( 1.000000000000000000, 0.0000000000000000000, 0.0000000000000000000 ) ) ;
#30 = EDGE_CURVE ( 'NONE', #170, #170, #105, .T. ) ;
#31 = APPROVAL_STATUS ( 'not_yet_approved' ) ;
#32 = CARTESIAN_POINT ( 'NONE',  ( 3.142333204958820020E-14, 0.5599999999999997202, 9.000000000000000000 ) ) ;
#33 = CIRCLE ( 'NONE', #168, 0.5500000000000000444 ) ;
#34 = DATE_TIME_ROLE ( 'creation_date' ) ;
#35 = SECURITY_CLASSIFICATION ( '', '', #139 ) ;
#36 = ADVANCED_FACE ( 'NONE', ( #96 ), #12, .T. ) ;
#37 = FACE_OUTER_BOUND ( 'NONE', #21, .T. ) ;
#38 = CALENDAR_DATE ( 2021, 8, 10 ) ;
#39 = PRODUCT_DEFINITION_FORMATION_WITH_SPECIFIED_SOURCE ( 'ANY', '', #11, .NOT_KNOWN. ) ;
#40 = CC_DESIGN_PERSON_AND_ORGANIZATION_ASSIGNMENT ( #124, #19, ( #35 ) ) ;
#41 = PERSON_AND_ORGANIZATION ( #80, #195 ) ;
#42 = AXIS2_PLACEMENT_3D ( 'NONE', #182, #129, #197 ) ;
#43 = DIRECTION ( 'NONE',  ( -3.491481338843133355E-15, 1.224646799147353207E-16, -1.000000000000000000 ) ) ;
#44 = FACE_BOUND ( 'NONE', #176, .T. ) ;
#45 = FACE_OUTER_BOUND ( 'NONE', #214, .T. ) ;
#46 = EDGE_LOOP ( 'NONE', ( #107 ) ) ;
#47 = MANIFOLD_SOLID_BREP ( 'Corps-Déplacer/Copier1[2]', #112 ) ;
#48 = CYLINDRICAL_SURFACE ( 'NONE', #76, 0.5599999999999998312 ) ;
#49 = PRODUCT_RELATED_PRODUCT_CATEGORY ( 'detail', '', ( #11 ) ) ;
#50 = APPLICATION_CONTEXT ( 'configuration controlled 3d designs of mechanical parts and assemblies' ) ;
#51 = APPROVAL_ROLE ( '' ) ;
#52 = COORDINATED_UNIVERSAL_TIME_OFFSET ( 1, 0, .AHEAD. ) ;
#53 = ADVANCED_FACE ( 'NONE', ( #45 ), #167, .T. ) ;
#54 = PERSON_AND_ORGANIZATION_ROLE ( 'creator' ) ;
#55 = CC_DESIGN_PERSON_AND_ORGANIZATION_ASSIGNMENT ( #220, #69, ( #11 ) ) ;
#56 = DESIGN_CONTEXT ( 'detailed design', #50, 'design' ) ;
#57 = AXIS2_PLACEMENT_3D ( 'NONE', #81, #196, #149 ) ;
#58 =( GEOMETRIC_REPRESENTATION_CONTEXT ( 3 ) GLOBAL_UNCERTAINTY_ASSIGNED_CONTEXT ( ( #4 ) ) GLOBAL_UNIT_ASSIGNED_CONTEXT ( ( #137, #204, #134 ) ) REPRESENTATION_CONTEXT ( 'NONE', 'WORKASPACE' ) );
#59 = ORIENTED_EDGE ( 'NONE', *, *, #67, .F. ) ;
#60 = EDGE_CURVE ( 'NONE', #73, #73, #74, .T. ) ;
#61 = DIRECTION ( 'NONE',  ( -3.491481338843133355E-15, 1.224646799147353207E-16, -1.000000000000000000 ) ) ;
#62 = DIRECTION ( 'NONE',  ( 0.0000000000000000000, 1.000000000000000000, 0.0000000000000000000 ) ) ;
#63 = ADVANCED_FACE ( 'NONE', ( #218, #13 ), #48, .T. ) ;
#64 = FACE_OUTER_BOUND ( 'NONE', #166, .T. ) ;
#65 = LOCAL_TIME ( 7, 54, 8.000000000000000000, #20 ) ;
#66 = FACE_OUTER_BOUND ( 'NONE', #25, .T. ) ;
#67 = EDGE_CURVE ( 'NONE', #205, #205, #200, .T. ) ;
#68 = CARTESIAN_POINT ( 'NONE',  ( 1.040461438975253740E-13, 0.7499999999999964473, 29.80000000000000071 ) ) ;
#69 = PERSON_AND_ORGANIZATION_ROLE ( 'design_owner' ) ;
#70 = AXIS2_PLACEMENT_3D ( 'NONE', #223, #18, #150 ) ;
#71 = CALENDAR_DATE ( 2021, 8, 10 ) ;
#72 = APPROVAL ( #106, 'UNSPECIFIED' ) ;
#73 = VERTEX_POINT ( 'NONE', #186 ) ;
#74 = CIRCLE ( 'NONE', #17, 0.7499999999999975575 ) ;
#75 = SHAPE_DEFINITION_REPRESENTATION ( #185, #88 ) ;
#76 = AXIS2_PLACEMENT_3D ( 'NONE', #93, #61, #23 ) ;
#77 = DIRECTION ( 'NONE',  ( 0.0000000000000000000, 1.000000000000000000, 0.0000000000000000000 ) ) ;
#78 = ORIENTED_EDGE ( 'NONE', *, *, #184, .T. ) ;
#79 = ORIENTED_EDGE ( 'NONE', *, *, #30, .F. ) ;
#80 = PERSON ( 'UNSPECIFIED', 'UNSPECIFIED', 'UNSPECIFIED', ('UNSPECIFIED'), ('UNSPECIFIED'), ('UNSPECIFIED') ) ;
#81 = CARTESIAN_POINT ( 'NONE',  ( 1.040461438975253740E-13, -3.649447461459112464E-15, 29.80000000000000071 ) ) ;
#82 = FACE_BOUND ( 'NONE', #6, .T. ) ;
#83 = DIRECTION ( 'NONE',  ( 0.0000000000000000000, 0.0000000000000000000, 1.000000000000000000 ) ) ;
#84 = PRODUCT_DEFINITION ( 'UNKNOWN', '', #39, #56 ) ;
#85 = AXIS2_PLACEMENT_3D ( 'NONE', #154, #14, #219 ) ;
#86 = APPROVAL_ROLE ( '' ) ;
#87 = CALENDAR_DATE ( 2021, 8, 10 ) ;
#88 = ADVANCED_BREP_SHAPE_REPRESENTATION ( '62921', ( #120, #47, #7 ), #58 ) ;
#89 = ORIENTED_EDGE ( 'NONE', *, *, #30, .T. ) ;
#90 = PERSON_AND_ORGANIZATION_ROLE ( 'creator' ) ;
#91 = ORIENTED_EDGE ( 'NONE', *, *, #60, .T. ) ;
#92 = DIRECTION ( 'NONE',  ( 3.491481338843133355E-15, -1.224646799147353207E-16, 1.000000000000000000 ) ) ;
#93 = CARTESIAN_POINT ( 'NONE',  ( 0.0000000000000000000, 0.0000000000000000000, 0.0000000000000000000 ) ) ;
#94 = CARTESIAN_POINT ( 'NONE',  ( 3.142333204958820020E-14, 4.199327391453191586E-33, 9.000000000000000000 ) ) ;
#95 = CC_DESIGN_DATE_AND_TIME_ASSIGNMENT ( #157, #3, ( #35 ) ) ;
#96 = FACE_OUTER_BOUND ( 'NONE', #161, .T. ) ;
#97 = CONICAL_SURFACE ( 'NONE', #128, 0.7499999999999975575, 0.5235987755982899339 ) ;
#98 = PLANE ( 'NONE',  #85 ) ;
#99 = CARTESIAN_POINT ( 'NONE',  ( 1.128852306876928440E-15, 0.5599999999999988320, 0.3233161507461936313 ) ) ;
#100 = VERTEX_POINT ( 'NONE', #68 ) ;
#101 = APPLICATION_CONTEXT ( 'configuration controlled 3d designs of mechanical parts and assemblies' ) ;
#102 = FACE_OUTER_BOUND ( 'NONE', #164, .T. ) ;
#103 = VERTEX_POINT ( 'NONE', #208 ) ;
#104 = DATE_AND_TIME ( #38, #65 ) ;
#105 = CIRCLE ( 'NONE', #217, 0.5600000000000008304 ) ;
#106 = APPROVAL_STATUS ( 'not_yet_approved' ) ;
#107 = ORIENTED_EDGE ( 'NONE', *, *, #113, .T. ) ;
#108 = EDGE_CURVE ( 'NONE', #116, #116, #33, .T. ) ;
#109 = ORIENTED_EDGE ( 'NONE', *, *, #113, .F. ) ;
#110 = FACE_OUTER_BOUND ( 'NONE', #193, .T. ) ;
#111 = DIRECTION ( 'NONE',  ( -3.491481338843133355E-15, 1.224646799147353207E-16, -1.000000000000000000 ) ) ;
#112 = CLOSED_SHELL ( 'NONE', ( #36, #63, #53 ) ) ;
#113 = EDGE_CURVE ( 'NONE', #103, #103, #121, .T. ) ;
#114 = DIRECTION ( 'NONE',  ( -4.275831445896958607E-31, -1.000000000000000000, -1.224646799147353207E-16 ) ) ;
#115 = CARTESIAN_POINT ( 'NONE',  ( 0.0000000000000000000, 0.0000000000000000000, 0.0000000000000000000 ) ) ;
#116 = VERTEX_POINT ( 'NONE', #117 ) ;
#117 = CARTESIAN_POINT ( 'NONE',  ( 1.047444401652940007E-13, 0.5499999999999963807, 30.00000000000000000 ) ) ;
#118 = APPROVAL ( #191, 'UNSPECIFIED' ) ;
#119 = CARTESIAN_POINT ( 'NONE',  ( 0.0000000000000000000, 0.0000000000000000000, 0.0000000000000000000 ) ) ;
#120 = MANIFOLD_SOLID_BREP ( 'Corps-Déplacer/Copier1[1]', #141 ) ;
#121 = CIRCLE ( 'NONE', #42, 0.5600000000000008304 ) ;
#122 = LOCAL_TIME ( 7, 54, 8.000000000000000000, #123 ) ;
#123 = COORDINATED_UNIVERSAL_TIME_OFFSET ( 1, 0, .AHEAD. ) ;
#124 = PERSON_AND_ORGANIZATION ( #80, #195 ) ;
#125 = APPROVAL_PERSON_ORGANIZATION ( #135, #140, #51 ) ;
#126 = COORDINATED_UNIVERSAL_TIME_OFFSET ( 1, 0, .AHEAD. ) ;
#127 = ORIENTED_EDGE ( 'NONE', *, *, #67, .T. ) ;
#128 = AXIS2_PLACEMENT_3D ( 'NONE', #9, #147, #24 ) ;
#129 = DIRECTION ( 'NONE',  ( -3.491481338843133355E-15, 1.224646799147353207E-16, -1.000000000000000000 ) ) ;
#130 = CARTESIAN_POINT ( 'NONE',  ( 1.128852306876928243E-15, -3.959480891239690561E-17, 0.3233161507461935757 ) ) ;
#131 = CARTESIAN_POINT ( 'NONE',  ( 1.128852306876928243E-15, -3.959480891239690561E-17, 0.3233161507461935757 ) ) ;
#132 = PLANE ( 'NONE',  #194 ) ;
#133 = FACE_OUTER_BOUND ( 'NONE', #183, .T. ) ;
#134 =( NAMED_UNIT ( * ) SI_UNIT ( $, .STERADIAN. ) SOLID_ANGLE_UNIT ( ) );
#135 = PERSON_AND_ORGANIZATION ( #80, #195 ) ;
#136 = DATE_AND_TIME ( #221, #163 ) ;
#137 =( LENGTH_UNIT ( ) NAMED_UNIT ( * ) SI_UNIT ( .MILLI., .METRE. ) );
#138 = AXIS2_PLACEMENT_3D ( 'NONE', #94, #10, #114 ) ;
#139 = SECURITY_CLASSIFICATION_LEVEL ( 'unclassified' ) ;
#140 = APPROVAL ( #31, 'UNSPECIFIED' ) ;
#141 = CLOSED_SHELL ( 'NONE', ( #158, #148, #187, #206, #198 ) ) ;
#142 = PERSON_AND_ORGANIZATION ( #80, #195 ) ;
#143 = CC_DESIGN_APPROVAL ( #72, ( #39 ) ) ;
#144 = CARTESIAN_POINT ( 'NONE',  ( 1.047444401652940007E-13, -3.673940397442059178E-15, 30.00000000000000000 ) ) ;
#145 = LOCAL_TIME ( 7, 54, 8.000000000000000000, #52 ) ;
#146 = DIRECTION ( 'NONE',  ( -3.491481338843133355E-15, 1.224646799147353207E-16, -1.000000000000000000 ) ) ;
#147 = DIRECTION ( 'NONE',  ( 3.491481338843133355E-15, -1.224646799147353207E-16, 1.000000000000000000 ) ) ;
#148 = ADVANCED_FACE ( 'NONE', ( #44, #110 ), #97, .T. ) ;
#149 = DIRECTION ( 'NONE',  ( 0.0000000000000000000, 1.000000000000000000, 0.0000000000000000000 ) ) ;
#150 = DIRECTION ( 'NONE',  ( 0.0000000000000000000, 1.000000000000000000, 0.0000000000000000000 ) ) ;
#151 = APPLICATION_PROTOCOL_DEFINITION ( 'international standard', 'config_control_design', 1994, #101 ) ;
#152 = MECHANICAL_CONTEXT ( 'NONE', #101, 'mechanical' ) ;
#153 = CC_DESIGN_PERSON_AND_ORGANIZATION_ASSIGNMENT ( #222, #54, ( #84 ) ) ;
#154 = CARTESIAN_POINT ( 'NONE',  ( 1.047444401652940007E-13, 4.124339402320052999E-33, 30.00000000000000000 ) ) ;
#155 = CIRCLE ( 'NONE', #57, 0.7500000000000001110 ) ;
#156 = APPROVAL_PERSON_ORGANIZATION ( #189, #72, #86 ) ;
#157 = DATE_AND_TIME ( #87, #174 ) ;
#158 = ADVANCED_FACE ( 'NONE', ( #64 ), #132, .F. ) ;
#159 = ORIENTED_EDGE ( 'NONE', *, *, #184, .F. ) ;
#160 = APPROVAL_DATE_TIME ( #173, #118 ) ;
#161 = EDGE_LOOP ( 'NONE', ( #127 ) ) ;
#162 = ORIENTED_EDGE ( 'NONE', *, *, #108, .F. ) ;
#163 = LOCAL_TIME ( 7, 54, 8.000000000000000000, #169 ) ;
#164 = EDGE_LOOP ( 'NONE', ( #159 ) ) ;
#165 = DIRECTION ( 'NONE',  ( -3.491481338843133355E-15, 1.224646799147353207E-16, -1.000000000000000000 ) ) ;
#166 = EDGE_LOOP ( 'NONE', ( #89 ) ) ;
#167 = PLANE ( 'NONE',  #138 ) ;
#168 = AXIS2_PLACEMENT_3D ( 'NONE', #144, #165, #211 ) ;
#169 = COORDINATED_UNIVERSAL_TIME_OFFSET ( 1, 0, .AHEAD. ) ;
#170 = VERTEX_POINT ( 'NONE', #32 ) ;
#171 = AXIS2_PLACEMENT_3D ( 'NONE', #130, #111, #181 ) ;
#172 = DIRECTION ( 'NONE',  ( 4.275831445896959482E-31, 1.000000000000000000, 1.224646799147353207E-16 ) ) ;
#173 = DATE_AND_TIME ( #5, #122 ) ;
#174 = LOCAL_TIME ( 7, 54, 8.000000000000000000, #126 ) ;
#175 = PERSON_AND_ORGANIZATION_ROLE ( 'design_supplier' ) ;
#176 = EDGE_LOOP ( 'NONE', ( #79 ) ) ;
#177 = CC_DESIGN_PERSON_AND_ORGANIZATION_ASSIGNMENT ( #209, #90, ( #39 ) ) ;
#178 = ORIENTED_EDGE ( 'NONE', *, *, #60, .F. ) ;
#179 = CARTESIAN_POINT ( 'NONE',  ( 3.142333204958820020E-14, 4.199327391453191586E-33, 9.000000000000000000 ) ) ;
#180 = APPROVAL_PERSON_ORGANIZATION ( #41, #118, #1 ) ;
#181 = DIRECTION ( 'NONE',  ( 3.439160614977214012E-31, 1.000000000000000000, 9.680376540049166806E-17 ) ) ;
#182 = CARTESIAN_POINT ( 'NONE',  ( 3.142333204958820020E-14, -1.102182119232617714E-15, 9.000000000000000000 ) ) ;
#183 = EDGE_LOOP ( 'NONE', ( #78 ) ) ;
#184 = EDGE_CURVE ( 'NONE', #100, #100, #155, .T. ) ;
#185 = PRODUCT_DEFINITION_SHAPE ( 'NONE', 'NONE',  #84 ) ;
#186 = CARTESIAN_POINT ( 'NONE',  ( 3.257234243337363291E-14, 0.7499999999999963363, 9.329089653438087382 ) ) ;
#187 = ADVANCED_FACE ( 'NONE', ( #66, #133 ), #203, .T. ) ;
#188 = DATE_AND_TIME ( #71, #145 ) ;
#189 = PERSON_AND_ORGANIZATION ( #80, #195 ) ;
#190 = CC_DESIGN_SECURITY_CLASSIFICATION ( #35, ( #39 ) ) ;
#191 = APPROVAL_STATUS ( 'not_yet_approved' ) ;
#192 = ORIENTED_EDGE ( 'NONE', *, *, #108, .T. ) ;
#193 = EDGE_LOOP ( 'NONE', ( #91 ) ) ;
#194 = AXIS2_PLACEMENT_3D ( 'NONE', #179, #92, #202 ) ;
#195 = ORGANIZATION ( 'UNSPECIFIED', 'UNSPECIFIED', '' ) ;
#196 = DIRECTION ( 'NONE',  ( -3.491481338843133355E-15, 1.224646799147353207E-16, -1.000000000000000000 ) ) ;
#197 = DIRECTION ( 'NONE',  ( 0.0000000000000000000, 1.000000000000000000, 0.0000000000000000000 ) ) ;
#198 = ADVANCED_FACE ( 'NONE', ( #37 ), #98, .F. ) ;
#199 = DIRECTION ( 'NONE',  ( -3.439160614977214012E-31, -1.000000000000000000, -9.680376540049166806E-17 ) ) ;
#200 = CIRCLE ( 'NONE', #171, 0.5599999999999988320 ) ;
#201 = CC_DESIGN_APPROVAL ( #140, ( #84 ) ) ;
#202 = DIRECTION ( 'NONE',  ( -4.275831445896958607E-31, -1.000000000000000000, -1.224646799147353207E-16 ) ) ;
#203 = CYLINDRICAL_SURFACE ( 'NONE', #212, 0.7499999999999987788 ) ;
#204 =( NAMED_UNIT ( * ) PLANE_ANGLE_UNIT ( ) SI_UNIT ( $, .RADIAN. ) );
#205 = VERTEX_POINT ( 'NONE', #99 ) ;
#206 = ADVANCED_FACE ( 'NONE', ( #102, #82 ), #210, .T. ) ;
#207 = APPROVAL_DATE_TIME ( #136, #140 ) ;
#208 = CARTESIAN_POINT ( 'NONE',  ( 3.142333204958820020E-14, 0.5599999999999997202, 9.000000000000000000 ) ) ;
#209 = PERSON_AND_ORGANIZATION ( #80, #195 ) ;
#210 = CONICAL_SURFACE ( 'NONE', #70, 0.5500000000000000444, 0.7853981633974516097 ) ;
#211 = DIRECTION ( 'NONE',  ( 0.0000000000000000000, 1.000000000000000000, 0.0000000000000000000 ) ) ;
#212 = AXIS2_PLACEMENT_3D ( 'NONE', #115, #15, #172 ) ;
#213 = CARTESIAN_POINT ( 'NONE',  ( 3.257234243337363291E-14, -1.142483978304164464E-15, 9.329089653438087382 ) ) ;
#214 = EDGE_LOOP ( 'NONE', ( #109 ) ) ;
#215 = CARTESIAN_POINT ( 'NONE',  ( 3.142333204958820020E-14, -1.102182119232617714E-15, 9.000000000000000000 ) ) ;
#216 = CC_DESIGN_DATE_AND_TIME_ASSIGNMENT ( #188, #34, ( #84 ) ) ;
#217 = AXIS2_PLACEMENT_3D ( 'NONE', #215, #43, #62 ) ;
#218 = FACE_OUTER_BOUND ( 'NONE', #8, .T. ) ;
#219 = DIRECTION ( 'NONE',  ( 4.275831445896958607E-31, 1.000000000000000000, 1.224646799147353207E-16 ) ) ;
#220 = PERSON_AND_ORGANIZATION ( #80, #195 ) ;
#221 = CALENDAR_DATE ( 2021, 8, 10 ) ;
#222 = PERSON_AND_ORGANIZATION ( #80, #195 ) ;
#223 = CARTESIAN_POINT ( 'NONE',  ( 1.047444401652940007E-13, -3.673940397442059178E-15, 30.00000000000000000 ) ) ;
ENDSEC;
END-ISO-10303-21;
