ISO-10303-21;
HEADER;
FILE_DESCRIPTION (( 'STEP AP203' ),
    '1' );
FILE_NAME ('62897.step',
    '2021-10-15T09:34:21',
    ( '' ),
    ( '' ),
    'SwSTEP 2.0',
    'SolidWorks 2019',
    '' );
FILE_SCHEMA (( 'CONFIG_CONTROL_DESIGN' ));
ENDSEC;

DATA;
#1 = ORIENTED_EDGE ( 'NONE', *, *, #98, .F. ) ;
#2 = CARTESIAN_POINT ( 'NONE',  ( 2.094888803305880013E-13, 5.999999999999989342, 60.00000000000000000 ) ) ;
#3 = DIRECTION ( 'NONE',  ( 4.275831445896958607E-31, 1.000000000000000000, 1.224646799147353207E-16 ) ) ;
#4 = DIRECTION ( 'NONE',  ( 0.0000000000000000000, 1.000000000000000000, 0.0000000000000000000 ) ) ;
#5 = FACE_OUTER_BOUND ( 'NONE', #49, .T. ) ;
#6 = AXIS2_PLACEMENT_3D ( 'NONE', #147, #213, #3 ) ;
#7 = CC_DESIGN_APPROVAL ( #209, ( #81 ) ) ;
#8 = DIRECTION ( 'NONE',  ( 3.491481338843133355E-15, -1.224646799147353207E-16, 1.000000000000000000 ) ) ;
#9 = PERSON_AND_ORGANIZATION_ROLE ( 'creator' ) ;
#10 = APPLICATION_PROTOCOL_DEFINITION ( 'international standard', 'config_control_design', 1994, #22 ) ;
#11 = CIRCLE ( 'NONE', #173, 6.000000000000001776 ) ;
#12 = APPROVAL_STATUS ( 'not_yet_approved' ) ;
#13 = SECURITY_CLASSIFICATION_LEVEL ( 'unclassified' ) ;
#14 = APPROVAL_ROLE ( '' ) ;
#15 = CARTESIAN_POINT ( 'NONE',  ( 2.094888803305880013E-13, -7.347880794884118356E-15, 60.00000000000000000 ) ) ;
#16 = APPROVAL_PERSON_ORGANIZATION ( #64, #45, #218 ) ;
#17 = ORIENTED_EDGE ( 'NONE', *, *, #111, .F. ) ;
#18 = DIRECTION ( 'NONE',  ( -3.491481338843133355E-15, 1.275673749111826186E-16, -1.000000000000000000 ) ) ;
#19 = FACE_BOUND ( 'NONE', #157, .T. ) ;
#20 = VERTEX_POINT ( 'NONE', #93 ) ;
#21 = CARTESIAN_POINT ( 'NONE',  ( 6.099817348007036274E-15, -2.228674911895067129E-16, 1.747057124477757739 ) ) ;
#22 = APPLICATION_CONTEXT ( 'configuration controlled 3d designs of mechanical parts and assemblies' ) ;
#23 = CARTESIAN_POINT ( 'NONE',  ( 0.0000000000000000000, 0.0000000000000000000, 0.0000000000000000000 ) ) ;
#24 = DIRECTION ( 'NONE',  ( 0.0000000000000000000, 0.0000000000000000000, 1.000000000000000000 ) ) ;
#25 = DATE_AND_TIME ( #201, #133 ) ;
#26 = CIRCLE ( 'NONE', #183, 4.799999999999998046 ) ;
#27 = CC_DESIGN_PERSON_AND_ORGANIZATION_ASSIGNMENT ( #114, #28, ( #81 ) ) ;
#28 = PERSON_AND_ORGANIZATION_ROLE ( 'creator' ) ;
#29 = AXIS2_PLACEMENT_3D ( 'NONE', #112, #75, #178 ) ;
#30 = ORIENTED_EDGE ( 'NONE', *, *, #98, .T. ) ;
#31 = EDGE_LOOP ( 'NONE', ( #30 ) ) ;
#32 = DIRECTION ( 'NONE',  ( 0.0000000000000000000, 1.000000000000000000, 0.0000000000000000000 ) ) ;
#33 = AXIS2_PLACEMENT_3D ( 'NONE', #76, #176, #108 ) ;
#34 = VERTEX_POINT ( 'NONE', #73 ) ;
#35 = APPROVAL ( #197, 'UNSPECIFIED' ) ;
#36 = FACE_OUTER_BOUND ( 'NONE', #31, .T. ) ;
#37 = FACE_OUTER_BOUND ( 'NONE', #68, .T. ) ;
#38 = CIRCLE ( 'NONE', #71, 5.999999999999996447 ) ;
#39 = DIRECTION ( 'NONE',  ( -3.491481338843133355E-15, 1.224646799147353207E-16, -1.000000000000000000 ) ) ;
#40 = AXIS2_PLACEMENT_3D ( 'NONE', #58, #142, #191 ) ;
#41 = PERSON_AND_ORGANIZATION ( #65, #221 ) ;
#42 = EDGE_CURVE ( 'NONE', #188, #188, #54, .T. ) ;
#43 = PERSON_AND_ORGANIZATION ( #65, #221 ) ;
#44 = DIRECTION ( 'NONE',  ( 1.000000000000000000, 0.0000000000000000000, 0.0000000000000000000 ) ) ;
#45 = APPROVAL ( #199, 'UNSPECIFIED' ) ;
#46 = ORIENTED_EDGE ( 'NONE', *, *, #42, .T. ) ;
#47 = CLOSED_SHELL ( 'NONE', ( #87, #200, #145, #149 ) ) ;
#48 = DIRECTION ( 'NONE',  ( -3.491481338843133355E-15, 1.224646799147353207E-16, -1.000000000000000000 ) ) ;
#49 = EDGE_LOOP ( 'NONE', ( #156 ) ) ;
#50 = AXIS2_PLACEMENT_3D ( 'NONE', #180, #207, #194 ) ;
#51 = CALENDAR_DATE ( 2021, 15, 10 ) ;
#52 = CARTESIAN_POINT ( 'NONE',  ( 8.327561618006538707E-15, -5.999999999999992895, 2.385108442471524537 ) ) ;
#53 = PLANE ( 'NONE',  #6 ) ;
#54 = CIRCLE ( 'NONE', #102, 5.999999999999996447 ) ;
#55 = APPLICATION_CONTEXT ( 'configuration controlled 3d designs of mechanical parts and assemblies' ) ;
#56 = CARTESIAN_POINT ( 'NONE',  ( 3.526396152231564058E-13, 5.999999999999989342, 100.9999999999999716 ) ) ;
#57 = UNCERTAINTY_MEASURE_WITH_UNIT (LENGTH_MEASURE( 1.000000000000000082E-05 ), #215, 'distance_accuracy_value', 'NONE');
#58 = CARTESIAN_POINT ( 'NONE',  ( 2.094888803305880013E-13, 4.499279347985560234E-32, 60.00000000000000000 ) ) ;
#59 = PRODUCT_RELATED_PRODUCT_CATEGORY ( 'detail', '', ( #212 ) ) ;
#60 = FACE_OUTER_BOUND ( 'NONE', #67, .T. ) ;
#61 =( NAMED_UNIT ( * ) PLANE_ANGLE_UNIT ( ) SI_UNIT ( $, .RADIAN. ) );
#62 = PERSON_AND_ORGANIZATION ( #65, #221 ) ;
#63 = EDGE_CURVE ( 'NONE', #34, #34, #38, .T. ) ;
#64 = PERSON_AND_ORGANIZATION ( #65, #221 ) ;
#65 = PERSON ( 'UNSPECIFIED', 'UNSPECIFIED', 'UNSPECIFIED', ('UNSPECIFIED'), ('UNSPECIFIED'), ('UNSPECIFIED') ) ;
#66 = COORDINATED_UNIVERSAL_TIME_OFFSET ( 1, 0, .AHEAD. ) ;
#67 = EDGE_LOOP ( 'NONE', ( #1 ) ) ;
#68 = EDGE_LOOP ( 'NONE', ( #171 ) ) ;
#69 = CONICAL_SURFACE ( 'NONE', #99, 4.799999999999998046, 1.221730476396033049 ) ;
#70 = EDGE_CURVE ( 'NONE', #141, #141, #11, .T. ) ;
#71 = AXIS2_PLACEMENT_3D ( 'NONE', #15, #85, #155 ) ;
#72 = LOCAL_TIME ( 11, 34, 21.00000000000000000, #151 ) ;
#73 = CARTESIAN_POINT ( 'NONE',  ( 2.094888803305880013E-13, 5.999999999999989342, 60.00000000000000000 ) ) ;
#74 = FACE_OUTER_BOUND ( 'NONE', #223, .T. ) ;
#75 = DIRECTION ( 'NONE',  ( -3.491481338843133355E-15, 1.224646799147353207E-16, -1.000000000000000000 ) ) ;
#76 = CARTESIAN_POINT ( 'NONE',  ( 8.327561618006541863E-15, -3.042620228845916498E-16, 2.385108442471525425 ) ) ;
#77 = DIRECTION ( 'NONE',  ( -4.275831445896958607E-31, -1.000000000000000000, -1.224646799147353207E-16 ) ) ;
#78 = COORDINATED_UNIVERSAL_TIME_OFFSET ( 1, 0, .AHEAD. ) ;
#79 = AXIS2_PLACEMENT_3D ( 'NONE', #146, #8, #77 ) ;
#80 = PERSON_AND_ORGANIZATION_ROLE ( 'design_owner' ) ;
#81 = PRODUCT_DEFINITION_FORMATION_WITH_SPECIFIED_SOURCE ( 'ANY', '', #212, .NOT_KNOWN. ) ;
#82 = MECHANICAL_CONTEXT ( 'NONE', #22, 'mechanical' ) ;
#83 = PERSON_AND_ORGANIZATION_ROLE ( 'design_supplier' ) ;
#84 = APPROVAL_DATE_TIME ( #222, #45 ) ;
#85 = DIRECTION ( 'NONE',  ( -3.491481338843133355E-15, 1.224646799147353207E-16, -1.000000000000000000 ) ) ;
#86 = EDGE_LOOP ( 'NONE', ( #17 ) ) ;
#87 = ADVANCED_FACE ( 'NONE', ( #5 ), #104, .F. ) ;
#88 = DIRECTION ( 'NONE',  ( -4.402125587170829311E-31, -1.000000000000000000, -1.239088197126292050E-16 ) ) ;
#89 = CC_DESIGN_DATE_AND_TIME_ASSIGNMENT ( #150, #217, ( #140 ) ) ;
#90 = CLOSED_SHELL ( 'NONE', ( #196, #190, #161, #107 ) ) ;
#91 = CARTESIAN_POINT ( 'NONE',  ( 3.561310965619995770E-13, -1.249139735130300089E-14, 102.0000000000000000 ) ) ;
#92 = PLANE ( 'NONE',  #40 ) ;
#93 = CARTESIAN_POINT ( 'NONE',  ( 6.099817348007037852E-15, 4.799999999999998046, 1.747057124477758405 ) ) ;
#94 = CC_DESIGN_APPROVAL ( #45, ( #140 ) ) ;
#95 = CYLINDRICAL_SURFACE ( 'NONE', #50, 5.999999999999999112 ) ;
#96 = CALENDAR_DATE ( 2021, 15, 10 ) ;
#97 = VERTEX_POINT ( 'NONE', #113 ) ;
#98 = EDGE_CURVE ( 'NONE', #177, #177, #136, .T. ) ;
#99 = AXIS2_PLACEMENT_3D ( 'NONE', #163, #210, #208 ) ;
#100 = APPROVAL_DATE_TIME ( #181, #35 ) ;
#101 = COORDINATED_UNIVERSAL_TIME_OFFSET ( 1, 0, .AHEAD. ) ;
#102 = AXIS2_PLACEMENT_3D ( 'NONE', #138, #48, #103 ) ;
#103 = DIRECTION ( 'NONE',  ( 0.0000000000000000000, 1.000000000000000000, 0.0000000000000000000 ) ) ;
#104 = PLANE ( 'NONE',  #79 ) ;
#105 =( GEOMETRIC_REPRESENTATION_CONTEXT ( 3 ) GLOBAL_UNCERTAINTY_ASSIGNED_CONTEXT ( ( #57 ) ) GLOBAL_UNIT_ASSIGNED_CONTEXT ( ( #215, #61, #195 ) ) REPRESENTATION_CONTEXT ( 'NONE', 'WORKASPACE' ) );
#106 = CARTESIAN_POINT ( 'NONE',  ( 3.526396152231564058E-13, -1.236893267138826416E-14, 100.9999999999999716 ) ) ;
#107 = ADVANCED_FACE ( 'NONE', ( #172 ), #69, .T. ) ;
#108 = DIRECTION ( 'NONE',  ( -5.135813185032634780E-31, -1.000000000000000000, -1.445602896647340889E-16 ) ) ;
#109 = PRODUCT_DEFINITION_SHAPE ( 'NONE', 'NONE',  #121 ) ;
#110 = FACE_OUTER_BOUND ( 'NONE', #204, .T. ) ;
#111 = EDGE_CURVE ( 'NONE', #20, #20, #26, .T. ) ;
#112 = CARTESIAN_POINT ( 'NONE',  ( 0.0000000000000000000, 0.0000000000000000000, 0.0000000000000000000 ) ) ;
#113 = CARTESIAN_POINT ( 'NONE',  ( 3.561310965619995770E-13, 4.999999999999989342, 102.0000000000000000 ) ) ;
#114 = PERSON_AND_ORGANIZATION ( #65, #221 ) ;
#115 = ADVANCED_BREP_SHAPE_REPRESENTATION ( '62897', ( #205, #139, #169 ), #105 ) ;
#116 = PERSON_AND_ORGANIZATION ( #65, #221 ) ;
#117 = ORIENTED_EDGE ( 'NONE', *, *, #42, .F. ) ;
#118 = SHAPE_DEFINITION_REPRESENTATION ( #109, #115 ) ;
#119 = EDGE_LOOP ( 'NONE', ( #187 ) ) ;
#120 = ORIENTED_EDGE ( 'NONE', *, *, #206, .T. ) ;
#121 = PRODUCT_DEFINITION ( 'UNKNOWN', '', #81, #192 ) ;
#122 = DIRECTION ( 'NONE',  ( 3.491481338843133355E-15, -1.275673749111826186E-16, 1.000000000000000000 ) ) ;
#123 = CONICAL_SURFACE ( 'NONE', #127, 6.999999999999992895, 1.082104136236487157 ) ;
#124 = FACE_BOUND ( 'NONE', #86, .T. ) ;
#125 = FACE_OUTER_BOUND ( 'NONE', #119, .T. ) ;
#126 = CARTESIAN_POINT ( 'NONE',  ( 1.018401517633947107E-14, -3.720907992971628989E-16, 2.916817874133000643 ) ) ;
#127 = AXIS2_PLACEMENT_3D ( 'NONE', #126, #122, #88 ) ;
#128 = CALENDAR_DATE ( 2021, 15, 10 ) ;
#129 = DATE_TIME_ROLE ( 'creation_date' ) ;
#130 = CC_DESIGN_PERSON_AND_ORGANIZATION_ASSIGNMENT ( #43, #9, ( #121 ) ) ;
#131 = CONICAL_SURFACE ( 'NONE', #164, 5.000000000000001776, 0.7853981633974410625 ) ;
#132 = CALENDAR_DATE ( 2021, 15, 10 ) ;
#133 = LOCAL_TIME ( 11, 34, 21.00000000000000000, #101 ) ;
#134 = DATE_AND_TIME ( #132, #159 ) ;
#135 = EDGE_LOOP ( 'NONE', ( #202 ) ) ;
#136 = CIRCLE ( 'NONE', #33, 5.999999999999992895 ) ;
#137 = APPROVAL_PERSON_ORGANIZATION ( #62, #35, #14 ) ;
#138 = CARTESIAN_POINT ( 'NONE',  ( 2.094888803305880013E-13, -7.347880794884118356E-15, 60.00000000000000000 ) ) ;
#139 = MANIFOLD_SOLID_BREP ( 'Corps-Déplacer/Copier1[2]', #90 ) ;
#140 = SECURITY_CLASSIFICATION ( '', '', #13 ) ;
#141 = VERTEX_POINT ( 'NONE', #56 ) ;
#142 = DIRECTION ( 'NONE',  ( 3.491481338843133355E-15, -1.224646799147353207E-16, 1.000000000000000000 ) ) ;
#143 = CARTESIAN_POINT ( 'NONE',  ( 3.561310965619995770E-13, -1.249139735130300089E-14, 102.0000000000000000 ) ) ;
#144 = CIRCLE ( 'NONE', #175, 5.000000000000001776 ) ;
#145 = ADVANCED_FACE ( 'NONE', ( #211, #19 ), #131, .T. ) ;
#146 = CARTESIAN_POINT ( 'NONE',  ( 2.094888803305880013E-13, 4.499279347985560234E-32, 60.00000000000000000 ) ) ;
#147 = CARTESIAN_POINT ( 'NONE',  ( 3.561310965619995770E-13, 3.749399456654627598E-32, 102.0000000000000000 ) ) ;
#148 = PERSON_AND_ORGANIZATION ( #65, #221 ) ;
#149 = ADVANCED_FACE ( 'NONE', ( #125 ), #53, .F. ) ;
#150 = DATE_AND_TIME ( #128, #72 ) ;
#151 = COORDINATED_UNIVERSAL_TIME_OFFSET ( 1, 0, .AHEAD. ) ;
#152 = CC_DESIGN_SECURITY_CLASSIFICATION ( #140, ( #81 ) ) ;
#153 = ORIENTED_EDGE ( 'NONE', *, *, #111, .T. ) ;
#154 = APPROVAL_PERSON_ORGANIZATION ( #166, #209, #216 ) ;
#155 = DIRECTION ( 'NONE',  ( 0.0000000000000000000, 1.000000000000000000, 0.0000000000000000000 ) ) ;
#156 = ORIENTED_EDGE ( 'NONE', *, *, #63, .T. ) ;
#157 = EDGE_LOOP ( 'NONE', ( #120 ) ) ;
#158 = DIRECTION ( 'NONE',  ( 0.0000000000000000000, 1.000000000000000000, 0.0000000000000000000 ) ) ;
#159 = LOCAL_TIME ( 11, 34, 21.00000000000000000, #78 ) ;
#160 = DIRECTION ( 'NONE',  ( -3.491481338843133355E-15, 1.224646799147353207E-16, -1.000000000000000000 ) ) ;
#161 = ADVANCED_FACE ( 'NONE', ( #124, #60 ), #123, .T. ) ;
#162 = CYLINDRICAL_SURFACE ( 'NONE', #29, 5.999999999999992895 ) ;
#163 = CARTESIAN_POINT ( 'NONE',  ( 6.099817348007036274E-15, -2.228674911895067129E-16, 1.747057124477757739 ) ) ;
#164 = AXIS2_PLACEMENT_3D ( 'NONE', #91, #160, #32 ) ;
#165 = DIRECTION ( 'NONE',  ( 4.814824860968091384E-31, 1.000000000000000000, 1.355252715606881036E-16 ) ) ;
#166 = PERSON_AND_ORGANIZATION ( #65, #221 ) ;
#167 = CC_DESIGN_APPROVAL ( #35, ( #121 ) ) ;
#168 = APPLICATION_PROTOCOL_DEFINITION ( 'international standard', 'config_control_design', 1994, #55 ) ;
#169 = AXIS2_PLACEMENT_3D ( 'NONE', #23, #24, #44 ) ;
#170 = CC_DESIGN_PERSON_AND_ORGANIZATION_ASSIGNMENT ( #116, #83, ( #81 ) ) ;
#171 = ORIENTED_EDGE ( 'NONE', *, *, #63, .F. ) ;
#172 = FACE_OUTER_BOUND ( 'NONE', #186, .T. ) ;
#173 = AXIS2_PLACEMENT_3D ( 'NONE', #106, #39, #4 ) ;
#174 = CC_DESIGN_PERSON_AND_ORGANIZATION_ASSIGNMENT ( #148, #214, ( #140 ) ) ;
#175 = AXIS2_PLACEMENT_3D ( 'NONE', #143, #189, #158 ) ;
#176 = DIRECTION ( 'NONE',  ( 3.491481338843133355E-15, -1.275673749111826186E-16, 1.000000000000000000 ) ) ;
#177 = VERTEX_POINT ( 'NONE', #52 ) ;
#178 = DIRECTION ( 'NONE',  ( 4.275831445896958607E-31, 1.000000000000000000, 1.224646799147353207E-16 ) ) ;
#179 = LOCAL_TIME ( 11, 34, 21.00000000000000000, #66 ) ;
#180 = CARTESIAN_POINT ( 'NONE',  ( 0.0000000000000000000, 0.0000000000000000000, 0.0000000000000000000 ) ) ;
#181 = DATE_AND_TIME ( #96, #185 ) ;
#182 = CC_DESIGN_DATE_AND_TIME_ASSIGNMENT ( #25, #129, ( #121 ) ) ;
#183 = AXIS2_PLACEMENT_3D ( 'NONE', #21, #18, #165 ) ;
#184 = COORDINATED_UNIVERSAL_TIME_OFFSET ( 1, 0, .AHEAD. ) ;
#185 = LOCAL_TIME ( 11, 34, 21.00000000000000000, #184 ) ;
#186 = EDGE_LOOP ( 'NONE', ( #153 ) ) ;
#187 = ORIENTED_EDGE ( 'NONE', *, *, #206, .F. ) ;
#188 = VERTEX_POINT ( 'NONE', #2 ) ;
#189 = DIRECTION ( 'NONE',  ( -3.491481338843133355E-15, 1.224646799147353207E-16, -1.000000000000000000 ) ) ;
#190 = ADVANCED_FACE ( 'NONE', ( #74 ), #92, .T. ) ;
#191 = DIRECTION ( 'NONE',  ( -4.275831445896958607E-31, -1.000000000000000000, -1.224646799147353207E-16 ) ) ;
#192 = DESIGN_CONTEXT ( 'detailed design', #55, 'design' ) ;
#193 = FACE_OUTER_BOUND ( 'NONE', #203, .T. ) ;
#194 = DIRECTION ( 'NONE',  ( 4.275831445896959482E-31, 1.000000000000000000, 1.224646799147353207E-16 ) ) ;
#195 =( NAMED_UNIT ( * ) SI_UNIT ( $, .STERADIAN. ) SOLID_ANGLE_UNIT ( ) );
#196 = ADVANCED_FACE ( 'NONE', ( #36, #193 ), #162, .T. ) ;
#197 = APPROVAL_STATUS ( 'not_yet_approved' ) ;
#198 = APPROVAL_DATE_TIME ( #134, #209 ) ;
#199 = APPROVAL_STATUS ( 'not_yet_approved' ) ;
#200 = ADVANCED_FACE ( 'NONE', ( #37, #110 ), #95, .T. ) ;
#201 = CALENDAR_DATE ( 2021, 15, 10 ) ;
#202 = ORIENTED_EDGE ( 'NONE', *, *, #70, .F. ) ;
#203 = EDGE_LOOP ( 'NONE', ( #46 ) ) ;
#204 = EDGE_LOOP ( 'NONE', ( #219 ) ) ;
#205 = MANIFOLD_SOLID_BREP ( 'Corps-Déplacer/Copier1[1]', #47 ) ;
#206 = EDGE_CURVE ( 'NONE', #97, #97, #144, .T. ) ;
#207 = DIRECTION ( 'NONE',  ( -3.491481338843133355E-15, 1.224646799147353207E-16, -1.000000000000000000 ) ) ;
#208 = DIRECTION ( 'NONE',  ( -4.814824860968091384E-31, -1.000000000000000000, -1.355252715606881036E-16 ) ) ;
#209 = APPROVAL ( #12, 'UNSPECIFIED' ) ;
#210 = DIRECTION ( 'NONE',  ( 3.491481338843133355E-15, -1.275673749111826186E-16, 1.000000000000000000 ) ) ;
#211 = FACE_OUTER_BOUND ( 'NONE', #135, .T. ) ;
#212 = PRODUCT ( '62897', '62897', '', ( #82 ) ) ;
#213 = DIRECTION ( 'NONE',  ( -3.491481338843133355E-15, 1.224646799147353207E-16, -1.000000000000000000 ) ) ;
#214 = PERSON_AND_ORGANIZATION_ROLE ( 'classification_officer' ) ;
#215 =( LENGTH_UNIT ( ) NAMED_UNIT ( * ) SI_UNIT ( .MILLI., .METRE. ) );
#216 = APPROVAL_ROLE ( '' ) ;
#217 = DATE_TIME_ROLE ( 'classification_date' ) ;
#218 = APPROVAL_ROLE ( '' ) ;
#219 = ORIENTED_EDGE ( 'NONE', *, *, #70, .T. ) ;
#220 = CC_DESIGN_PERSON_AND_ORGANIZATION_ASSIGNMENT ( #41, #80, ( #212 ) ) ;
#221 = ORGANIZATION ( 'UNSPECIFIED', 'UNSPECIFIED', '' ) ;
#222 = DATE_AND_TIME ( #51, #179 ) ;
#223 = EDGE_LOOP ( 'NONE', ( #117 ) ) ;
ENDSEC;
END-ISO-10303-21;
