ISO-10303-21;
HEADER;
FILE_DESCRIPTION (( 'STEP AP203' ),
    '1' );
FILE_NAME ('62896.step',
    '2021-10-15T09:34:21',
    ( '' ),
    ( '' ),
    'SwSTEP 2.0',
    'SolidWorks 2019',
    '' );
FILE_SCHEMA (( 'CONFIG_CONTROL_DESIGN' ));
ENDSEC;

DATA;
#1 = EDGE_LOOP ( 'NONE', ( #123 ) ) ;
#2 = PERSON_AND_ORGANIZATION ( #171, #190 ) ;
#3 = EDGE_LOOP ( 'NONE', ( #22 ) ) ;
#4 = ORIENTED_EDGE ( 'NONE', *, *, #170, .T. ) ;
#5 = APPLICATION_CONTEXT ( 'configuration controlled 3d designs of mechanical parts and assemblies' ) ;
#6 = AXIS2_PLACEMENT_3D ( 'NONE', #255, #56, #12 ) ;
#7 = CARTESIAN_POINT ( 'NONE',  ( 3.526396152231564058E-13, -1.236893267138826416E-14, 100.9999999999999716 ) ) ;
#8 = CC_DESIGN_PERSON_AND_ORGANIZATION_ASSIGNMENT ( #18, #164, ( #184 ) ) ;
#9 = CARTESIAN_POINT ( 'NONE',  ( 2.094888803305880013E-13, 7.347880794884124035E-14, 60.00000000000000000 ) ) ;
#10 = DIRECTION ( 'NONE',  ( 4.287287528375066384E-30, -1.000000000000000000, 1.206764157201257735E-15 ) ) ;
#11 = SECURITY_CLASSIFICATION ( '', '', #232 ) ;
#12 = DIRECTION ( 'NONE',  ( -4.275831445896958607E-31, -1.000000000000000000, -1.224646799147353207E-16 ) ) ;
#13 = ORIENTED_EDGE ( 'NONE', *, *, #220, .F. ) ;
#14 = CONICAL_SURFACE ( 'NONE', #118, 4.599999999999997868, 1.221730476396032161 ) ;
#15 = FACE_OUTER_BOUND ( 'NONE', #228, .T. ) ;
#16 = CC_DESIGN_PERSON_AND_ORGANIZATION_ASSIGNMENT ( #26, #45, ( #30 ) ) ;
#17 = PLANE ( 'NONE',  #121 ) ;
#18 = PERSON_AND_ORGANIZATION ( #171, #190 ) ;
#19 = CYLINDRICAL_SURFACE ( 'NONE', #241, 5.999999999999999112 ) ;
#20 = APPROVAL_PERSON_ORGANIZATION ( #41, #178, #104 ) ;
#21 = APPROVAL_ROLE ( '' ) ;
#22 = ORIENTED_EDGE ( 'NONE', *, *, #55, .T. ) ;
#23 = ORIENTED_EDGE ( 'NONE', *, *, #191, .F. ) ;
#24 = CIRCLE ( 'NONE', #134, 5.749999999999954703 ) ;
#25 = ADVANCED_FACE ( 'NONE', ( #32, #72 ), #103, .T. ) ;
#26 = PERSON_AND_ORGANIZATION ( #171, #190 ) ;
#27 = ORIENTED_EDGE ( 'NONE', *, *, #149, .F. ) ;
#28 = COORDINATED_UNIVERSAL_TIME_OFFSET ( 1, 0, .AHEAD. ) ;
#29 = DIRECTION ( 'NONE',  ( -3.491481338843133355E-15, 1.224646799147353207E-16, -1.000000000000000000 ) ) ;
#30 = PRODUCT_DEFINITION_FORMATION_WITH_SPECIFIED_SOURCE ( 'ANY', '', #184, .NOT_KNOWN. ) ;
#31 = DIRECTION ( 'NONE',  ( 0.0000000000000000000, 1.000000000000000000, 0.0000000000000000000 ) ) ;
#32 = FACE_BOUND ( 'NONE', #106, .T. ) ;
#33 = DIRECTION ( 'NONE',  ( 0.0000000000000000000, 1.000000000000000000, 0.0000000000000000000 ) ) ;
#34 = ADVANCED_FACE ( 'NONE', ( #239, #50 ), #76, .T. ) ;
#35 = CARTESIAN_POINT ( 'NONE',  ( 2.094888803305880013E-13, 4.499279347985560234E-32, 60.00000000000000000 ) ) ;
#36 =( LENGTH_UNIT ( ) NAMED_UNIT ( * ) SI_UNIT ( .MILLI., .METRE. ) );
#37 = EDGE_CURVE ( 'NONE', #102, #102, #223, .T. ) ;
#38 = LOCAL_TIME ( 11, 34, 21.00000000000000000, #227 ) ;
#39 = DIRECTION ( 'NONE',  ( -4.354276396005927157E-30, 1.000000000000000000, -1.225619847157527489E-15 ) ) ;
#40 = MECHANICAL_CONTEXT ( 'NONE', #5, 'mechanical' ) ;
#41 = PERSON_AND_ORGANIZATION ( #171, #190 ) ;
#42 = DATE_AND_TIME ( #225, #90 ) ;
#43 = ORIENTED_EDGE ( 'NONE', *, *, #170, .F. ) ;
#44 = DATE_TIME_ROLE ( 'creation_date' ) ;
#45 = PERSON_AND_ORGANIZATION_ROLE ( 'creator' ) ;
#46 = ADVANCED_FACE ( 'NONE', ( #96 ), #150, .T. ) ;
#47 = ORIENTED_EDGE ( 'NONE', *, *, #198, .F. ) ;
#48 = AXIS2_PLACEMENT_3D ( 'NONE', #120, #78, #97 ) ;
#49 = EDGE_LOOP ( 'NONE', ( #169 ) ) ;
#50 = FACE_OUTER_BOUND ( 'NONE', #107, .T. ) ;
#51 = CC_DESIGN_PERSON_AND_ORGANIZATION_ASSIGNMENT ( #2, #262, ( #11 ) ) ;
#52 = FACE_OUTER_BOUND ( 'NONE', #89, .T. ) ;
#53 = DIRECTION ( 'NONE',  ( -4.287287528375097913E-30, 1.000000000000000000, -1.206764157201266610E-15 ) ) ;
#54 = CARTESIAN_POINT ( 'NONE',  ( -3.491481338843130200E-15, -1.224646799147353059E-15, -0.9999999999999991118 ) ) ;
#55 = EDGE_CURVE ( 'NONE', #119, #119, #101, .T. ) ;
#56 = DIRECTION ( 'NONE',  ( 3.491481338843133355E-15, -1.224646799147353207E-16, 1.000000000000000000 ) ) ;
#57 = CONICAL_SURFACE ( 'NONE', #67, 5.000000000000001776, 0.7853981633974410625 ) ;
#58 = CARTESIAN_POINT ( 'NONE',  ( 3.561310965619995770E-13, 3.749399456654627598E-32, 102.0000000000000000 ) ) ;
#59 = ADVANCED_FACE ( 'NONE', ( #148 ), #127, .F. ) ;
#60 = VERTEX_POINT ( 'NONE', #80 ) ;
#61 = DIRECTION ( 'NONE',  ( 0.0000000000000000000, 0.0000000000000000000, 1.000000000000000000 ) ) ;
#62 = CC_DESIGN_APPROVAL ( #111, ( #30 ) ) ;
#63 = CARTESIAN_POINT ( 'NONE',  ( 0.0000000000000000000, 0.0000000000000000000, 0.0000000000000000000 ) ) ;
#64 = CARTESIAN_POINT ( 'NONE',  ( 0.0000000000000000000, 0.0000000000000000000, 0.0000000000000000000 ) ) ;
#65 = CC_DESIGN_DATE_AND_TIME_ASSIGNMENT ( #70, #143, ( #11 ) ) ;
#66 = CALENDAR_DATE ( 2021, 15, 10 ) ;
#67 = AXIS2_PLACEMENT_3D ( 'NONE', #109, #192, #253 ) ;
#68 = PERSON_AND_ORGANIZATION ( #171, #190 ) ;
#69 = SHAPE_DEFINITION_REPRESENTATION ( #99, #206 ) ;
#70 = DATE_AND_TIME ( #126, #182 ) ;
#71 = DIRECTION ( 'NONE',  ( 0.0000000000000000000, -1.000000000000000000, 0.0000000000000000000 ) ) ;
#72 = FACE_OUTER_BOUND ( 'NONE', #1, .T. ) ;
#73 = DESIGN_CONTEXT ( 'detailed design', #86, 'design' ) ;
#74 = EDGE_LOOP ( 'NONE', ( #189 ) ) ;
#75 = AXIS2_PLACEMENT_3D ( 'NONE', #91, #77, #215 ) ;
#76 = CYLINDRICAL_SURFACE ( 'NONE', #197, 5.749999999999954703 ) ;
#77 = DIRECTION ( 'NONE',  ( -3.491481338843133355E-15, -1.224646799147354045E-15, -1.000000000000000000 ) ) ;
#78 = DIRECTION ( 'NONE',  ( 3.491481338843133355E-15, 1.224646799147354045E-15, 1.000000000000000000 ) ) ;
#79 = CC_DESIGN_SECURITY_CLASSIFICATION ( #11, ( #30 ) ) ;
#80 = CARTESIAN_POINT ( 'NONE',  ( 2.094888803305880013E-13, -5.749999999999880984, 60.00000000000000000 ) ) ;
#81 = AXIS2_PLACEMENT_3D ( 'NONE', #235, #218, #176 ) ;
#82 = VERTEX_POINT ( 'NONE', #135 ) ;
#83 = APPROVAL_DATE_TIME ( #42, #116 ) ;
#84 = COORDINATED_UNIVERSAL_TIME_OFFSET ( 1, 0, .AHEAD. ) ;
#85 = EDGE_LOOP ( 'NONE', ( #147 ) ) ;
#86 = APPLICATION_CONTEXT ( 'configuration controlled 3d designs of mechanical parts and assemblies' ) ;
#87 = CIRCLE ( 'NONE', #75, 5.749999999999912070 ) ;
#88 = APPROVAL_ROLE ( '' ) ;
#89 = EDGE_LOOP ( 'NONE', ( #93 ) ) ;
#90 = LOCAL_TIME ( 11, 34, 21.00000000000000000, #122 ) ;
#91 = CARTESIAN_POINT ( 'NONE',  ( 2.269462870248037564E-13, 7.960204194457803563E-14, 65.00000000000001421 ) ) ;
#92 = DIRECTION ( 'NONE',  ( 4.354276396005926457E-30, -1.000000000000000000, 1.225619847157527292E-15 ) ) ;
#93 = ORIENTED_EDGE ( 'NONE', *, *, #220, .T. ) ;
#94 = AXIS2_PLACEMENT_3D ( 'NONE', #174, #130, #39 ) ;
#95 = FACE_OUTER_BOUND ( 'NONE', #188, .T. ) ;
#96 = FACE_OUTER_BOUND ( 'NONE', #230, .T. ) ;
#97 = DIRECTION ( 'NONE',  ( 7.585201011740602903E-30, -1.000000000000000000, 2.135044278125330531E-15 ) ) ;
#98 = CARTESIAN_POINT ( 'NONE',  ( 3.526396152231564058E-13, 5.999999999999989342, 100.9999999999999716 ) ) ;
#99 = PRODUCT_DEFINITION_SHAPE ( 'NONE', 'NONE',  #226 ) ;
#100 = DIRECTION ( 'NONE',  ( 4.275831445896959482E-31, 1.000000000000000000, 1.224646799147353207E-16 ) ) ;
#101 = CIRCLE ( 'NONE', #212, 5.749999999999954703 ) ;
#102 = VERTEX_POINT ( 'NONE', #154 ) ;
#103 = CONICAL_SURFACE ( 'NONE', #168, 5.749999999999997335, 1.082104136236485603 ) ;
#104 = APPROVAL_ROLE ( '' ) ;
#105 = ADVANCED_FACE ( 'NONE', ( #95, #236 ), #238, .T. ) ;
#106 = EDGE_LOOP ( 'NONE', ( #13 ) ) ;
#107 = EDGE_LOOP ( 'NONE', ( #208 ) ) ;
#108 = APPROVAL_STATUS ( 'not_yet_approved' ) ;
#109 = CARTESIAN_POINT ( 'NONE',  ( 3.561310965619995770E-13, -1.249139735130300089E-14, 102.0000000000000000 ) ) ;
#110 = CARTESIAN_POINT ( 'NONE',  ( 5.845658291840092141E-15, 2.050380918943469352E-15, 1.674263077624522422 ) ) ;
#111 = APPROVAL ( #263, 'UNSPECIFIED' ) ;
#112 = DIRECTION ( 'NONE',  ( -4.275831445896958607E-31, -1.000000000000000000, -1.224646799147353207E-16 ) ) ;
#113 = DIRECTION ( 'NONE',  ( 0.0000000000000000000, -1.000000000000000000, 0.0000000000000000000 ) ) ;
#114 = APPROVAL_PERSON_ORGANIZATION ( #68, #111, #21 ) ;
#115 = DIRECTION ( 'NONE',  ( -3.491481338843133355E-15, 1.224646799147353207E-16, -1.000000000000000000 ) ) ;
#116 = APPROVAL ( #183, 'UNSPECIFIED' ) ;
#117 = FACE_OUTER_BOUND ( 'NONE', #187, .T. ) ;
#118 = AXIS2_PLACEMENT_3D ( 'NONE', #110, #193, #92 ) ;
#119 = VERTEX_POINT ( 'NONE', #201 ) ;
#120 = CARTESIAN_POINT ( 'NONE',  ( 2.314818543292198741E-13, 8.119290480266539055E-14, 66.29903810567667222 ) ) ;
#121 = AXIS2_PLACEMENT_3D ( 'NONE', #58, #221, #256 ) ;
#122 = COORDINATED_UNIVERSAL_TIME_OFFSET ( 1, 0, .AHEAD. ) ;
#123 = ORIENTED_EDGE ( 'NONE', *, *, #252, .T. ) ;
#124 = PERSON_AND_ORGANIZATION ( #171, #190 ) ;
#125 = EDGE_LOOP ( 'NONE', ( #247 ) ) ;
#126 = CALENDAR_DATE ( 2021, 15, 10 ) ;
#127 = PLANE ( 'NONE',  #6 ) ;
#128 = CC_DESIGN_PERSON_AND_ORGANIZATION_ASSIGNMENT ( #229, #245, ( #226 ) ) ;
#129 = DIRECTION ( 'NONE',  ( 3.491481338843133355E-15, 1.224646799147354045E-15, 1.000000000000000000 ) ) ;
#130 = DIRECTION ( 'NONE',  ( -3.491481338843133355E-15, -1.224646799147354045E-15, -1.000000000000000000 ) ) ;
#131 = CARTESIAN_POINT ( 'NONE',  ( 7.980579883922966651E-15, 2.799210610538258600E-15, 2.285728924035220544 ) ) ;
#132 = DIRECTION ( 'NONE',  ( -3.491481338843133355E-15, 1.224646799147353207E-16, -1.000000000000000000 ) ) ;
#133 = AXIS2_PLACEMENT_3D ( 'NONE', #35, #251, #112 ) ;
#134 = AXIS2_PLACEMENT_3D ( 'NONE', #9, #240, #113 ) ;
#135 = CARTESIAN_POINT ( 'NONE',  ( 5.845658291840071631E-15, 4.599999999999998757, 1.674263077624516649 ) ) ;
#136 = DIRECTION ( 'NONE',  ( -3.491481338843133355E-15, -1.224646799147354045E-15, -1.000000000000000000 ) ) ;
#137 = ADVANCED_FACE ( 'NONE', ( #177, #217 ), #57, .T. ) ;
#138 = CC_DESIGN_APPROVAL ( #178, ( #226 ) ) ;
#139 = VERTEX_POINT ( 'NONE', #157 ) ;
#140 = DIRECTION ( 'NONE',  ( 1.000000000000000000, 0.0000000000000000000, 0.0000000000000000000 ) ) ;
#141 = PERSON_AND_ORGANIZATION_ROLE ( 'design_supplier' ) ;
#142 = CONICAL_SURFACE ( 'NONE', #48, 6.499999999999910294, 0.5235987755983002589 ) ;
#143 = DATE_TIME_ROLE ( 'classification_date' ) ;
#144 = EDGE_LOOP ( 'NONE', ( #27 ) ) ;
#145 = AXIS2_PLACEMENT_3D ( 'NONE', #173, #129, #196 ) ;
#146 = MANIFOLD_SOLID_BREP ( 'Corps-Déplacer/Copier1[2]', #231 ) ;
#147 = ORIENTED_EDGE ( 'NONE', *, *, #252, .F. ) ;
#148 = FACE_OUTER_BOUND ( 'NONE', #3, .T. ) ;
#149 = EDGE_CURVE ( 'NONE', #159, #159, #186, .T. ) ;
#150 = PLANE ( 'NONE',  #133 ) ;
#151 = CARTESIAN_POINT ( 'NONE',  ( 2.094888803305880013E-13, 7.347880794884124035E-14, 60.00000000000000000 ) ) ;
#152 = EDGE_LOOP ( 'NONE', ( #216 ) ) ;
#153 = EDGE_LOOP ( 'NONE', ( #23 ) ) ;
#154 = CARTESIAN_POINT ( 'NONE',  ( 3.561310965619995770E-13, 4.999999999999989342, 102.0000000000000000 ) ) ;
#155 = MANIFOLD_SOLID_BREP ( 'Corps-Déplacer/Copier1[1]', #160 ) ;
#156 = CIRCLE ( 'NONE', #243, 5.749999999999996447 ) ;
#157 = CARTESIAN_POINT ( 'NONE',  ( 2.269462870248037564E-13, 5.749999999999992006, 65.00000000000000000 ) ) ;
#158 = CC_DESIGN_DATE_AND_TIME_ASSIGNMENT ( #165, #44, ( #226 ) ) ;
#159 = VERTEX_POINT ( 'NONE', #98 ) ;
#160 = CLOSED_SHELL ( 'NONE', ( #237, #137, #246, #34, #250, #59 ) ) ;
#161 =( NAMED_UNIT ( * ) SI_UNIT ( $, .STERADIAN. ) SOLID_ANGLE_UNIT ( ) );
#162 = UNCERTAINTY_MEASURE_WITH_UNIT (LENGTH_MEASURE( 1.000000000000000082E-05 ), #36, 'distance_accuracy_value', 'NONE');
#163 = APPROVAL_PERSON_ORGANIZATION ( #124, #116, #88 ) ;
#164 = PERSON_AND_ORGANIZATION_ROLE ( 'design_owner' ) ;
#165 = DATE_AND_TIME ( #185, #205 ) ;
#166 = APPROVAL_DATE_TIME ( #209, #178 ) ;
#167 =( GEOMETRIC_REPRESENTATION_CONTEXT ( 3 ) GLOBAL_UNCERTAINTY_ASSIGNED_CONTEXT ( ( #162 ) ) GLOBAL_UNIT_ASSIGNED_CONTEXT ( ( #36, #259, #161 ) ) REPRESENTATION_CONTEXT ( 'NONE', 'WORKASPACE' ) );
#168 = AXIS2_PLACEMENT_3D ( 'NONE', #131, #254, #10 ) ;
#169 = ORIENTED_EDGE ( 'NONE', *, *, #37, .T. ) ;
#170 = EDGE_CURVE ( 'NONE', #60, #60, #24, .T. ) ;
#171 = PERSON ( 'UNSPECIFIED', 'UNSPECIFIED', 'UNSPECIFIED', ('UNSPECIFIED'), ('UNSPECIFIED'), ('UNSPECIFIED') ) ;
#172 = AXIS2_PLACEMENT_3D ( 'NONE', #64, #61, #140 ) ;
#173 = CARTESIAN_POINT ( 'NONE',  ( 2.284581427929430009E-13, 8.013232956394066818E-14, 65.43301270189239460 ) ) ;
#174 = CARTESIAN_POINT ( 'NONE',  ( 5.845658291840092141E-15, 2.050380918943469352E-15, 1.674263077624522422 ) ) ;
#175 = AXIS2_PLACEMENT_3D ( 'NONE', #7, #115, #33 ) ;
#176 = DIRECTION ( 'NONE',  ( -4.287287528375097913E-30, 1.000000000000000000, -1.206764157201266610E-15 ) ) ;
#177 = FACE_OUTER_BOUND ( 'NONE', #144, .T. ) ;
#178 = APPROVAL ( #108, 'UNSPECIFIED' ) ;
#179 = AXIS2_PLACEMENT_3D ( 'NONE', #214, #29, #31 ) ;
#180 = CARTESIAN_POINT ( 'NONE',  ( 7.980579883922966651E-15, 2.799210610538258600E-15, 2.285728924035220544 ) ) ;
#181 = DIRECTION ( 'NONE',  ( -3.491481338843133355E-15, 1.224646799147353207E-16, -1.000000000000000000 ) ) ;
#182 = LOCAL_TIME ( 11, 34, 21.00000000000000000, #249 ) ;
#183 = APPROVAL_STATUS ( 'not_yet_approved' ) ;
#184 = PRODUCT ( '62896', '62896', '', ( #40 ) ) ;
#185 = CALENDAR_DATE ( 2021, 15, 10 ) ;
#186 = CIRCLE ( 'NONE', #175, 6.000000000000001776 ) ;
#187 = EDGE_LOOP ( 'NONE', ( #234 ) ) ;
#188 = EDGE_LOOP ( 'NONE', ( #4 ) ) ;
#189 = ORIENTED_EDGE ( 'NONE', *, *, #149, .T. ) ;
#190 = ORGANIZATION ( 'UNSPECIFIED', 'UNSPECIFIED', '' ) ;
#191 = EDGE_CURVE ( 'NONE', #139, #139, #87, .T. ) ;
#192 = DIRECTION ( 'NONE',  ( -3.491481338843133355E-15, 1.224646799147353207E-16, -1.000000000000000000 ) ) ;
#193 = DIRECTION ( 'NONE',  ( 3.491481338843133355E-15, 1.224646799147354045E-15, 1.000000000000000000 ) ) ;
#194 = DIRECTION ( 'NONE',  ( -3.491481338843133355E-15, -1.224646799147354045E-15, -1.000000000000000000 ) ) ;
#195 = CIRCLE ( 'NONE', #94, 4.599999999999996980 ) ;
#196 = DIRECTION ( 'NONE',  ( 8.217301096052207241E-30, -1.000000000000000000, 2.312964634635743056E-15 ) ) ;
#197 = AXIS2_PLACEMENT_3D ( 'NONE', #54, #194, #53 ) ;
#198 = EDGE_CURVE ( 'NONE', #260, #260, #261, .T. ) ;
#199 = FACE_OUTER_BOUND ( 'NONE', #74, .T. ) ;
#200 = LOCAL_TIME ( 11, 34, 21.00000000000000000, #28 ) ;
#201 = CARTESIAN_POINT ( 'NONE',  ( 2.094888803305880013E-13, -5.749999999999880984, 60.00000000000000000 ) ) ;
#202 = APPLICATION_PROTOCOL_DEFINITION ( 'international standard', 'config_control_design', 1994, #5 ) ;
#203 = PRODUCT_RELATED_PRODUCT_CATEGORY ( 'detail', '', ( #184 ) ) ;
#204 = FACE_OUTER_BOUND ( 'NONE', #152, .T. ) ;
#205 = LOCAL_TIME ( 11, 34, 21.00000000000000000, #84 ) ;
#206 = ADVANCED_BREP_SHAPE_REPRESENTATION ( '62896', ( #155, #146, #172 ), #167 ) ;
#207 = DATE_AND_TIME ( #211, #200 ) ;
#208 = ORIENTED_EDGE ( 'NONE', *, *, #55, .F. ) ;
#209 = DATE_AND_TIME ( #66, #38 ) ;
#210 = ADVANCED_FACE ( 'NONE', ( #52 ), #14, .T. ) ;
#211 = CALENDAR_DATE ( 2021, 15, 10 ) ;
#212 = AXIS2_PLACEMENT_3D ( 'NONE', #151, #132, #71 ) ;
#213 = CC_DESIGN_PERSON_AND_ORGANIZATION_ASSIGNMENT ( #248, #141, ( #30 ) ) ;
#214 = CARTESIAN_POINT ( 'NONE',  ( 3.561310965619995770E-13, -1.249139735130300089E-14, 102.0000000000000000 ) ) ;
#215 = DIRECTION ( 'NONE',  ( 0.0000000000000000000, 1.000000000000000000, -2.413528314402550969E-15 ) ) ;
#216 = ORIENTED_EDGE ( 'NONE', *, *, #37, .F. ) ;
#217 = FACE_BOUND ( 'NONE', #49, .T. ) ;
#218 = DIRECTION ( 'NONE',  ( -3.491481338843133355E-15, -1.224646799147354045E-15, -1.000000000000000000 ) ) ;
#219 = VERTEX_POINT ( 'NONE', #224 ) ;
#220 = EDGE_CURVE ( 'NONE', #82, #82, #195, .T. ) ;
#221 = DIRECTION ( 'NONE',  ( -3.491481338843133355E-15, 1.224646799147353207E-16, -1.000000000000000000 ) ) ;
#222 = CC_DESIGN_APPROVAL ( #116, ( #11 ) ) ;
#223 = CIRCLE ( 'NONE', #179, 5.000000000000001776 ) ;
#224 = CARTESIAN_POINT ( 'NONE',  ( 7.980579883922941408E-15, 5.749999999999999112, 2.285728924035213883 ) ) ;
#225 = CALENDAR_DATE ( 2021, 15, 10 ) ;
#226 = PRODUCT_DEFINITION ( 'UNKNOWN', '', #30, #73 ) ;
#227 = COORDINATED_UNIVERSAL_TIME_OFFSET ( 1, 0, .AHEAD. ) ;
#228 = EDGE_LOOP ( 'NONE', ( #47 ) ) ;
#229 = PERSON_AND_ORGANIZATION ( #171, #190 ) ;
#230 = EDGE_LOOP ( 'NONE', ( #43 ) ) ;
#231 = CLOSED_SHELL ( 'NONE', ( #46, #210, #25, #105 ) ) ;
#232 = SECURITY_CLASSIFICATION_LEVEL ( 'unclassified' ) ;
#233 = APPROVAL_DATE_TIME ( #207, #111 ) ;
#234 = ORIENTED_EDGE ( 'NONE', *, *, #198, .T. ) ;
#235 = CARTESIAN_POINT ( 'NONE',  ( -3.491481338843130200E-15, -1.224646799147353059E-15, -0.9999999999999991118 ) ) ;
#236 = FACE_OUTER_BOUND ( 'NONE', #85, .T. ) ;
#237 = ADVANCED_FACE ( 'NONE', ( #117, #199 ), #19, .T. ) ;
#238 = CYLINDRICAL_SURFACE ( 'NONE', #81, 5.749999999999954703 ) ;
#239 = FACE_OUTER_BOUND ( 'NONE', #125, .T. ) ;
#240 = DIRECTION ( 'NONE',  ( -3.491481338843133355E-15, 1.224646799147353207E-16, -1.000000000000000000 ) ) ;
#241 = AXIS2_PLACEMENT_3D ( 'NONE', #63, #181, #100 ) ;
#242 = CARTESIAN_POINT ( 'NONE',  ( 2.284581427929430513E-13, -5.999999999999919176, 65.43301270189240881 ) ) ;
#243 = AXIS2_PLACEMENT_3D ( 'NONE', #180, #136, #258 ) ;
#244 = APPLICATION_PROTOCOL_DEFINITION ( 'international standard', 'config_control_design', 1994, #86 ) ;
#245 = PERSON_AND_ORGANIZATION_ROLE ( 'creator' ) ;
#246 = ADVANCED_FACE ( 'NONE', ( #204 ), #17, .F. ) ;
#247 = ORIENTED_EDGE ( 'NONE', *, *, #191, .T. ) ;
#248 = PERSON_AND_ORGANIZATION ( #171, #190 ) ;
#249 = COORDINATED_UNIVERSAL_TIME_OFFSET ( 1, 0, .AHEAD. ) ;
#250 = ADVANCED_FACE ( 'NONE', ( #257, #15 ), #142, .T. ) ;
#251 = DIRECTION ( 'NONE',  ( 3.491481338843133355E-15, -1.224646799147353207E-16, 1.000000000000000000 ) ) ;
#252 = EDGE_CURVE ( 'NONE', #219, #219, #156, .T. ) ;
#253 = DIRECTION ( 'NONE',  ( 0.0000000000000000000, 1.000000000000000000, 0.0000000000000000000 ) ) ;
#254 = DIRECTION ( 'NONE',  ( 3.491481338843133355E-15, 1.224646799147354045E-15, 1.000000000000000000 ) ) ;
#255 = CARTESIAN_POINT ( 'NONE',  ( 2.094888803305880013E-13, 4.499279347985560234E-32, 60.00000000000000000 ) ) ;
#256 = DIRECTION ( 'NONE',  ( 4.275831445896958607E-31, 1.000000000000000000, 1.224646799147353207E-16 ) ) ;
#257 = FACE_BOUND ( 'NONE', #153, .T. ) ;
#258 = DIRECTION ( 'NONE',  ( -4.287287528375067084E-30, 1.000000000000000000, -1.206764157201257932E-15 ) ) ;
#259 =( NAMED_UNIT ( * ) PLANE_ANGLE_UNIT ( ) SI_UNIT ( $, .RADIAN. ) );
#260 = VERTEX_POINT ( 'NONE', #242 ) ;
#261 = CIRCLE ( 'NONE', #145, 5.999999999999999112 ) ;
#262 = PERSON_AND_ORGANIZATION_ROLE ( 'classification_officer' ) ;
#263 = APPROVAL_STATUS ( 'not_yet_approved' ) ;
ENDSEC;
END-ISO-10303-21;
