ISO-10303-21;
HEADER;
FILE_DESCRIPTION (( 'STEP AP203' ),
    '1' );
FILE_NAME ('62895.step',
    '2021-10-15T09:34:20',
    ( '' ),
    ( '' ),
    'SwSTEP 2.0',
    'SolidWorks 2019',
    '' );
FILE_SCHEMA (( 'CONFIG_CONTROL_DESIGN' ));
ENDSEC;

DATA;
#1 = MECHANICAL_CONTEXT ( 'NONE', #139, 'mechanical' ) ;
#2 = CC_DESIGN_DATE_AND_TIME_ASSIGNMENT ( #191, #8, ( #196 ) ) ;
#3 = FACE_OUTER_BOUND ( 'NONE', #195, .T. ) ;
#4 = CARTESIAN_POINT ( 'NONE',  ( 0.0000000000000000000, 0.0000000000000000000, 0.0000000000000000000 ) ) ;
#5 = APPROVAL_ROLE ( '' ) ;
#6 = EDGE_LOOP ( 'NONE', ( #31 ) ) ;
#7 = EDGE_CURVE ( 'NONE', #150, #150, #123, .T. ) ;
#8 = DATE_TIME_ROLE ( 'classification_date' ) ;
#9 = AXIS2_PLACEMENT_3D ( 'NONE', #224, #245, #165 ) ;
#10 = DATE_AND_TIME ( #219, #74 ) ;
#11 = ORIENTED_EDGE ( 'NONE', *, *, #117, .T. ) ;
#12 = ADVANCED_BREP_SHAPE_REPRESENTATION ( '62895', ( #52, #146, #252 ), #207 ) ;
#13 = SHAPE_DEFINITION_REPRESENTATION ( #23, #12 ) ;
#14 = EDGE_LOOP ( 'NONE', ( #107 ) ) ;
#15 = CLOSED_SHELL ( 'NONE', ( #47, #206, #235, #239, #201, #144 ) ) ;
#16 = DIRECTION ( 'NONE',  ( 0.0000000000000000000, -1.000000000000000000, 0.0000000000000000000 ) ) ;
#17 = FACE_OUTER_BOUND ( 'NONE', #109, .T. ) ;
#18 = EDGE_CURVE ( 'NONE', #204, #204, #229, .T. ) ;
#19 = DIRECTION ( 'NONE',  ( -4.202028969572153373E-30, 1.000000000000000000, -1.232047923278982939E-15 ) ) ;
#20 = FACE_BOUND ( 'NONE', #242, .T. ) ;
#21 = CARTESIAN_POINT ( 'NONE',  ( 2.329937100973586136E-13, 8.172319242202784640E-14, 66.73205080756888208 ) ) ;
#22 = CARTESIAN_POINT ( 'NONE',  ( 2.094888803305880013E-13, -5.499999999999880984, 60.00000000000000000 ) ) ;
#23 = PRODUCT_DEFINITION_SHAPE ( 'NONE', 'NONE',  #157 ) ;
#24 = DIRECTION ( 'NONE',  ( 4.202028969572151971E-30, -1.000000000000000000, 1.232047923278982742E-15 ) ) ;
#25 = PERSON_AND_ORGANIZATION_ROLE ( 'design_owner' ) ;
#26 = FACE_OUTER_BOUND ( 'NONE', #35, .T. ) ;
#27 = PERSON_AND_ORGANIZATION ( #167, #112 ) ;
#28 = EDGE_LOOP ( 'NONE', ( #71 ) ) ;
#29 = DATE_AND_TIME ( #213, #151 ) ;
#30 = PERSON_AND_ORGANIZATION ( #167, #112 ) ;
#31 = ORIENTED_EDGE ( 'NONE', *, *, #7, .F. ) ;
#32 = AXIS2_PLACEMENT_3D ( 'NONE', #59, #197, #256 ) ;
#33 = AXIS2_PLACEMENT_3D ( 'NONE', #182, #46, #103 ) ;
#34 = APPROVAL_ROLE ( '' ) ;
#35 = EDGE_LOOP ( 'NONE', ( #54 ) ) ;
#36 = DIRECTION ( 'NONE',  ( -3.491481338843133355E-15, 1.224646799147353207E-16, -1.000000000000000000 ) ) ;
#37 = DIRECTION ( 'NONE',  ( 3.491481338843133355E-15, -1.224646799147353207E-16, 1.000000000000000000 ) ) ;
#38 = CARTESIAN_POINT ( 'NONE',  ( 5.591499235673132231E-15, 1.961233922467666765E-15, 1.601469030771282664 ) ) ;
#39 = ORIENTED_EDGE ( 'NONE', *, *, #110, .T. ) ;
#40 = DIRECTION ( 'NONE',  ( -3.491481338843133355E-15, -1.224646799147354045E-15, -1.000000000000000000 ) ) ;
#41 = CARTESIAN_POINT ( 'NONE',  ( 2.299699985610817404E-13, -5.999999999999918288, 65.86602540378461867 ) ) ;
#42 = DIRECTION ( 'NONE',  ( 1.000000000000000000, 0.0000000000000000000, 0.0000000000000000000 ) ) ;
#43 = CYLINDRICAL_SURFACE ( 'NONE', #125, 5.499999999999954703 ) ;
#44 = AXIS2_PLACEMENT_3D ( 'NONE', #258, #37, #227 ) ;
#45 = CIRCLE ( 'NONE', #217, 4.399999999999997691 ) ;
#46 = DIRECTION ( 'NONE',  ( -3.491481338843133355E-15, 1.224646799147353207E-16, -1.000000000000000000 ) ) ;
#47 = ADVANCED_FACE ( 'NONE', ( #17, #92 ), #119, .T. ) ;
#48 = DATE_TIME_ROLE ( 'creation_date' ) ;
#49 = PERSON_AND_ORGANIZATION_ROLE ( 'creator' ) ;
#50 = APPLICATION_CONTEXT ( 'configuration controlled 3d designs of mechanical parts and assemblies' ) ;
#51 = DATE_AND_TIME ( #175, #96 ) ;
#52 = MANIFOLD_SOLID_BREP ( 'Corps-Déplacer/Copier1[1]', #15 ) ;
#53 = APPROVAL_ROLE ( '' ) ;
#54 = ORIENTED_EDGE ( 'NONE', *, *, #18, .F. ) ;
#55 = ADVANCED_FACE ( 'NONE', ( #184 ), #199, .T. ) ;
#56 = AXIS2_PLACEMENT_3D ( 'NONE', #164, #248, #114 ) ;
#57 = CARTESIAN_POINT ( 'NONE',  ( 2.269462870248037060E-13, 7.960204194457801038E-14, 65.00000000000000000 ) ) ;
#58 = DIRECTION ( 'NONE',  ( 0.0000000000000000000, 1.000000000000000000, 0.0000000000000000000 ) ) ;
#59 = CARTESIAN_POINT ( 'NONE',  ( 0.0000000000000000000, 0.0000000000000000000, 0.0000000000000000000 ) ) ;
#60 = PRODUCT ( '62895', '62895', '', ( #1 ) ) ;
#61 = PLANE ( 'NONE',  #44 ) ;
#62 = CONICAL_SURFACE ( 'NONE', #9, 5.499999999999997335, 1.082104136236485603 ) ;
#63 = DIRECTION ( 'NONE',  ( -4.342096601891258129E-30, 1.000000000000000000, -1.222191539892760439E-15 ) ) ;
#64 = APPROVAL_PERSON_ORGANIZATION ( #208, #192, #34 ) ;
#65 = DIRECTION ( 'NONE',  ( -3.491481338843133355E-15, -1.224646799147354045E-15, -1.000000000000000000 ) ) ;
#66 = PERSON_AND_ORGANIZATION_ROLE ( 'creator' ) ;
#67 = APPROVAL_DATE_TIME ( #10, #251 ) ;
#68 = DESIGN_CONTEXT ( 'detailed design', #50, 'design' ) ;
#69 = ADVANCED_FACE ( 'NONE', ( #202, #178 ), #62, .T. ) ;
#70 = COORDINATED_UNIVERSAL_TIME_OFFSET ( 1, 0, .AHEAD. ) ;
#71 = ORIENTED_EDGE ( 'NONE', *, *, #180, .F. ) ;
#72 = COORDINATED_UNIVERSAL_TIME_OFFSET ( 1, 0, .AHEAD. ) ;
#73 = CLOSED_SHELL ( 'NONE', ( #55, #262, #69, #244 ) ) ;
#74 = LOCAL_TIME ( 11, 34, 20.00000000000000000, #174 ) ;
#75 = DIRECTION ( 'NONE',  ( -3.491481338843133355E-15, 1.224646799147353207E-16, -1.000000000000000000 ) ) ;
#76 = CARTESIAN_POINT ( 'NONE',  ( 2.299699985610816899E-13, 8.066261718330312403E-14, 65.86602540378460446 ) ) ;
#77 = AXIS2_PLACEMENT_3D ( 'NONE', #257, #247, #16 ) ;
#78 = PRODUCT_DEFINITION_FORMATION_WITH_SPECIFIED_SOURCE ( 'ANY', '', #60, .NOT_KNOWN. ) ;
#79 = EDGE_CURVE ( 'NONE', #122, #122, #211, .T. ) ;
#80 = EDGE_LOOP ( 'NONE', ( #159 ) ) ;
#81 = DIRECTION ( 'NONE',  ( 0.0000000000000000000, 1.000000000000000000, 0.0000000000000000000 ) ) ;
#82 = CARTESIAN_POINT ( 'NONE',  ( 3.561310965619995770E-13, -1.249139735130300089E-14, 102.0000000000000000 ) ) ;
#83 = DIRECTION ( 'NONE',  ( 0.0000000000000000000, 0.0000000000000000000, 1.000000000000000000 ) ) ;
#84 = AXIS2_PLACEMENT_3D ( 'NONE', #93, #223, #181 ) ;
#85 = PERSON_AND_ORGANIZATION ( #167, #112 ) ;
#86 = VERTEX_POINT ( 'NONE', #104 ) ;
#87 = DIRECTION ( 'NONE',  ( -3.491481338843133355E-15, -1.224646799147354045E-15, -1.000000000000000000 ) ) ;
#88 = CALENDAR_DATE ( 2021, 15, 10 ) ;
#89 = ORIENTED_EDGE ( 'NONE', *, *, #231, .F. ) ;
#90 = ORIENTED_EDGE ( 'NONE', *, *, #18, .T. ) ;
#91 = AXIS2_PLACEMENT_3D ( 'NONE', #163, #75, #243 ) ;
#92 = FACE_OUTER_BOUND ( 'NONE', #241, .T. ) ;
#93 = CARTESIAN_POINT ( 'NONE',  ( 3.526396152231564058E-13, -1.236893267138826416E-14, 100.9999999999999716 ) ) ;
#94 = FACE_OUTER_BOUND ( 'NONE', #14, .T. ) ;
#95 = AXIS2_PLACEMENT_3D ( 'NONE', #82, #36, #81 ) ;
#96 = LOCAL_TIME ( 11, 34, 20.00000000000000000, #254 ) ;
#97 = ORIENTED_EDGE ( 'NONE', *, *, #180, .T. ) ;
#98 = APPROVAL_PERSON_ORGANIZATION ( #153, #251, #5 ) ;
#99 = EDGE_LOOP ( 'NONE', ( #158 ) ) ;
#100 =( NAMED_UNIT ( * ) PLANE_ANGLE_UNIT ( ) SI_UNIT ( $, .RADIAN. ) );
#101 = CIRCLE ( 'NONE', #84, 6.000000000000001776 ) ;
#102 = APPROVAL_STATUS ( 'not_yet_approved' ) ;
#103 = DIRECTION ( 'NONE',  ( 4.275831445896958607E-31, 1.000000000000000000, 1.224646799147353207E-16 ) ) ;
#104 = CARTESIAN_POINT ( 'NONE',  ( 7.633598149839336220E-15, 5.500000000000000000, 2.186349405598899676 ) ) ;
#105 = AXIS2_PLACEMENT_3D ( 'NONE', #228, #138, #118 ) ;
#106 = PERSON_AND_ORGANIZATION ( #167, #112 ) ;
#107 = ORIENTED_EDGE ( 'NONE', *, *, #79, .F. ) ;
#108 = COORDINATED_UNIVERSAL_TIME_OFFSET ( 1, 0, .AHEAD. ) ;
#109 = EDGE_LOOP ( 'NONE', ( #97 ) ) ;
#110 = EDGE_CURVE ( 'NONE', #188, #188, #255, .T. ) ;
#111 = AXIS2_PLACEMENT_3D ( 'NONE', #21, #260, #222 ) ;
#112 = ORGANIZATION ( 'UNSPECIFIED', 'UNSPECIFIED', '' ) ;
#113 = CC_DESIGN_PERSON_AND_ORGANIZATION_ASSIGNMENT ( #30, #135, ( #196 ) ) ;
#114 = DIRECTION ( 'NONE',  ( -4.202028969572152672E-30, 1.000000000000000000, -1.261617073437678443E-15 ) ) ;
#115 = CIRCLE ( 'NONE', #56, 5.499999999999997335 ) ;
#116 = DIRECTION ( 'NONE',  ( -4.275831445896958607E-31, -1.000000000000000000, -1.224646799147353207E-16 ) ) ;
#117 = EDGE_CURVE ( 'NONE', #172, #172, #101, .T. ) ;
#118 = DIRECTION ( 'NONE',  ( 0.0000000000000000000, -1.000000000000000000, 0.0000000000000000000 ) ) ;
#119 = CYLINDRICAL_SURFACE ( 'NONE', #32, 5.999999999999999112 ) ;
#120 = PLANE ( 'NONE',  #33 ) ;
#121 = PRODUCT_RELATED_PRODUCT_CATEGORY ( 'detail', '', ( #60 ) ) ;
#122 = VERTEX_POINT ( 'NONE', #169 ) ;
#123 = CIRCLE ( 'NONE', #77, 5.499999999999954703 ) ;
#124 = DIRECTION ( 'NONE',  ( -4.342096601891258129E-30, 1.000000000000000000, -1.222191539892760439E-15 ) ) ;
#125 = AXIS2_PLACEMENT_3D ( 'NONE', #205, #87, #124 ) ;
#126 = DIRECTION ( 'NONE',  ( 3.491481338843133355E-15, 1.224646799147354045E-15, 1.000000000000000000 ) ) ;
#127 = VERTEX_POINT ( 'NONE', #170 ) ;
#128 = PERSON_AND_ORGANIZATION ( #167, #112 ) ;
#129 = APPROVAL_DATE_TIME ( #51, #192 ) ;
#130 = CC_DESIGN_PERSON_AND_ORGANIZATION_ASSIGNMENT ( #128, #66, ( #157 ) ) ;
#131 = EDGE_LOOP ( 'NONE', ( #156 ) ) ;
#132 = EDGE_LOOP ( 'NONE', ( #90 ) ) ;
#133 = APPROVAL_STATUS ( 'not_yet_approved' ) ;
#134 = ORIENTED_EDGE ( 'NONE', *, *, #7, .T. ) ;
#135 = PERSON_AND_ORGANIZATION_ROLE ( 'classification_officer' ) ;
#136 = CC_DESIGN_SECURITY_CLASSIFICATION ( #196, ( #78 ) ) ;
#137 = ORIENTED_EDGE ( 'NONE', *, *, #117, .F. ) ;
#138 = DIRECTION ( 'NONE',  ( -3.491481338843133355E-15, 1.224646799147353207E-16, -1.000000000000000000 ) ) ;
#139 = APPLICATION_CONTEXT ( 'configuration controlled 3d designs of mechanical parts and assemblies' ) ;
#140 = CIRCLE ( 'NONE', #232, 5.999999999999999112 ) ;
#141 = DIRECTION ( 'NONE',  ( 8.217301096052207241E-30, -1.000000000000000000, 2.312964634635743056E-15 ) ) ;
#142 = FACE_OUTER_BOUND ( 'NONE', #132, .T. ) ;
#143 = FACE_OUTER_BOUND ( 'NONE', #177, .T. ) ;
#144 = ADVANCED_FACE ( 'NONE', ( #142 ), #61, .F. ) ;
#145 = FACE_OUTER_BOUND ( 'NONE', #218, .T. ) ;
#146 = MANIFOLD_SOLID_BREP ( 'Corps-Déplacer/Copier1[2]', #73 ) ;
#147 = VERTEX_POINT ( 'NONE', #41 ) ;
#148 = CC_DESIGN_PERSON_AND_ORGANIZATION_ASSIGNMENT ( #212, #49, ( #78 ) ) ;
#149 = AXIS2_PLACEMENT_3D ( 'NONE', #161, #183, #116 ) ;
#150 = VERTEX_POINT ( 'NONE', #263 ) ;
#151 = LOCAL_TIME ( 11, 34, 20.00000000000000000, #72 ) ;
#152 = FACE_OUTER_BOUND ( 'NONE', #99, .T. ) ;
#153 = PERSON_AND_ORGANIZATION ( #167, #112 ) ;
#154 = CALENDAR_DATE ( 2021, 15, 10 ) ;
#155 = ORIENTED_EDGE ( 'NONE', *, *, #221, .T. ) ;
#156 = ORIENTED_EDGE ( 'NONE', *, *, #79, .T. ) ;
#157 = PRODUCT_DEFINITION ( 'UNKNOWN', '', #78, #68 ) ;
#158 = ORIENTED_EDGE ( 'NONE', *, *, #221, .F. ) ;
#159 = ORIENTED_EDGE ( 'NONE', *, *, #231, .T. ) ;
#160 = CC_DESIGN_DATE_AND_TIME_ASSIGNMENT ( #215, #48, ( #157 ) ) ;
#161 = CARTESIAN_POINT ( 'NONE',  ( 2.094888803305880013E-13, 4.499279347985560234E-32, 60.00000000000000000 ) ) ;
#162 = CC_DESIGN_APPROVAL ( #192, ( #157 ) ) ;
#163 = CARTESIAN_POINT ( 'NONE',  ( 3.561310965619995770E-13, -1.249139735130300089E-14, 102.0000000000000000 ) ) ;
#164 = CARTESIAN_POINT ( 'NONE',  ( 7.633598149839358308E-15, 2.677505801384421664E-15, 2.186349405598906781 ) ) ;
#165 = DIRECTION ( 'NONE',  ( 4.202028969572152672E-30, -1.000000000000000000, 1.261617073437678443E-15 ) ) ;
#166 =( LENGTH_UNIT ( ) NAMED_UNIT ( * ) SI_UNIT ( .MILLI., .METRE. ) );
#167 = PERSON ( 'UNSPECIFIED', 'UNSPECIFIED', 'UNSPECIFIED', ('UNSPECIFIED'), ('UNSPECIFIED'), ('UNSPECIFIED') ) ;
#168 = CC_DESIGN_APPROVAL ( #251, ( #196 ) ) ;
#169 = CARTESIAN_POINT ( 'NONE',  ( 3.561310965619995770E-13, 4.999999999999989342, 102.0000000000000000 ) ) ;
#170 = CARTESIAN_POINT ( 'NONE',  ( 5.591499235673114087E-15, 4.399999999999999467, 1.601469030771277113 ) ) ;
#171 = AXIS2_PLACEMENT_3D ( 'NONE', #187, #126, #24 ) ;
#172 = VERTEX_POINT ( 'NONE', #250 ) ;
#173 = APPROVAL ( #240, 'UNSPECIFIED' ) ;
#174 = COORDINATED_UNIVERSAL_TIME_OFFSET ( 1, 0, .AHEAD. ) ;
#175 = CALENDAR_DATE ( 2021, 15, 10 ) ;
#176 = CONICAL_SURFACE ( 'NONE', #111, 6.499999999999910294, 0.5235987755982960401 ) ;
#177 = EDGE_LOOP ( 'NONE', ( #137 ) ) ;
#178 = FACE_OUTER_BOUND ( 'NONE', #237, .T. ) ;
#179 = CC_DESIGN_APPROVAL ( #173, ( #78 ) ) ;
#180 = EDGE_CURVE ( 'NONE', #147, #147, #140, .T. ) ;
#181 = DIRECTION ( 'NONE',  ( 0.0000000000000000000, 1.000000000000000000, 0.0000000000000000000 ) ) ;
#182 = CARTESIAN_POINT ( 'NONE',  ( 3.561310965619995770E-13, 3.749399456654627598E-32, 102.0000000000000000 ) ) ;
#183 = DIRECTION ( 'NONE',  ( 3.491481338843133355E-15, -1.224646799147353207E-16, 1.000000000000000000 ) ) ;
#184 = FACE_OUTER_BOUND ( 'NONE', #6, .T. ) ;
#185 =( NAMED_UNIT ( * ) SI_UNIT ( $, .STERADIAN. ) SOLID_ANGLE_UNIT ( ) );
#186 = APPLICATION_PROTOCOL_DEFINITION ( 'international standard', 'config_control_design', 1994, #139 ) ;
#187 = CARTESIAN_POINT ( 'NONE',  ( 5.591499235673132231E-15, 1.961233922467666765E-15, 1.601469030771282664 ) ) ;
#188 = VERTEX_POINT ( 'NONE', #234 ) ;
#189 = SECURITY_CLASSIFICATION_LEVEL ( 'unclassified' ) ;
#190 = ORIENTED_EDGE ( 'NONE', *, *, #110, .F. ) ;
#191 = DATE_AND_TIME ( #88, #226 ) ;
#192 = APPROVAL ( #102, 'UNSPECIFIED' ) ;
#193 = PERSON_AND_ORGANIZATION_ROLE ( 'design_supplier' ) ;
#194 = LOCAL_TIME ( 11, 34, 20.00000000000000000, #70 ) ;
#195 = EDGE_LOOP ( 'NONE', ( #134 ) ) ;
#196 = SECURITY_CLASSIFICATION ( '', '', #189 ) ;
#197 = DIRECTION ( 'NONE',  ( -3.491481338843133355E-15, 1.224646799147353207E-16, -1.000000000000000000 ) ) ;
#198 = AXIS2_PLACEMENT_3D ( 'NONE', #57, #249, #58 ) ;
#199 = PLANE ( 'NONE',  #149 ) ;
#200 = DIRECTION ( 'NONE',  ( 3.491481338843133355E-15, 1.224646799147354045E-15, 1.000000000000000000 ) ) ;
#201 = ADVANCED_FACE ( 'NONE', ( #20, #203 ), #176, .T. ) ;
#202 = FACE_BOUND ( 'NONE', #220, .T. ) ;
#203 = FACE_OUTER_BOUND ( 'NONE', #28, .T. ) ;
#204 = VERTEX_POINT ( 'NONE', #22 ) ;
#205 = CARTESIAN_POINT ( 'NONE',  ( -3.491481338843130200E-15, -1.224646799147353059E-15, -0.9999999999999991118 ) ) ;
#206 = ADVANCED_FACE ( 'NONE', ( #143, #261 ), #216, .T. ) ;
#207 =( GEOMETRIC_REPRESENTATION_CONTEXT ( 3 ) GLOBAL_UNCERTAINTY_ASSIGNED_CONTEXT ( ( #214 ) ) GLOBAL_UNIT_ASSIGNED_CONTEXT ( ( #166, #100, #185 ) ) REPRESENTATION_CONTEXT ( 'NONE', 'WORKASPACE' ) );
#208 = PERSON_AND_ORGANIZATION ( #167, #112 ) ;
#209 = CC_DESIGN_PERSON_AND_ORGANIZATION_ASSIGNMENT ( #85, #25, ( #60 ) ) ;
#210 = APPLICATION_PROTOCOL_DEFINITION ( 'international standard', 'config_control_design', 1994, #50 ) ;
#211 = CIRCLE ( 'NONE', #91, 5.000000000000001776 ) ;
#212 = PERSON_AND_ORGANIZATION ( #167, #112 ) ;
#213 = CALENDAR_DATE ( 2021, 15, 10 ) ;
#214 = UNCERTAINTY_MEASURE_WITH_UNIT (LENGTH_MEASURE( 1.000000000000000082E-05 ), #166, 'distance_accuracy_value', 'NONE');
#215 = DATE_AND_TIME ( #154, #194 ) ;
#216 = CONICAL_SURFACE ( 'NONE', #95, 5.000000000000001776, 0.7853981633974410625 ) ;
#217 = AXIS2_PLACEMENT_3D ( 'NONE', #38, #40, #19 ) ;
#218 = EDGE_LOOP ( 'NONE', ( #39 ) ) ;
#219 = CALENDAR_DATE ( 2021, 15, 10 ) ;
#220 = EDGE_LOOP ( 'NONE', ( #89 ) ) ;
#221 = EDGE_CURVE ( 'NONE', #86, #86, #115, .T. ) ;
#222 = DIRECTION ( 'NONE',  ( 7.585201011740602903E-30, -1.000000000000000000, 2.135044278125330531E-15 ) ) ;
#223 = DIRECTION ( 'NONE',  ( -3.491481338843133355E-15, 1.224646799147353207E-16, -1.000000000000000000 ) ) ;
#224 = CARTESIAN_POINT ( 'NONE',  ( 7.633598149839358308E-15, 2.677505801384421664E-15, 2.186349405598906781 ) ) ;
#225 = CC_DESIGN_PERSON_AND_ORGANIZATION_ASSIGNMENT ( #27, #193, ( #78 ) ) ;
#226 = LOCAL_TIME ( 11, 34, 20.00000000000000000, #108 ) ;
#227 = DIRECTION ( 'NONE',  ( -4.275831445896958607E-31, -1.000000000000000000, -1.224646799147353207E-16 ) ) ;
#228 = CARTESIAN_POINT ( 'NONE',  ( 2.094888803305880013E-13, 7.347880794884124035E-14, 60.00000000000000000 ) ) ;
#229 = CIRCLE ( 'NONE', #105, 5.499999999999954703 ) ;
#230 = CARTESIAN_POINT ( 'NONE',  ( -3.491481338843130200E-15, -1.224646799147353059E-15, -0.9999999999999991118 ) ) ;
#231 = EDGE_CURVE ( 'NONE', #127, #127, #45, .T. ) ;
#232 = AXIS2_PLACEMENT_3D ( 'NONE', #76, #200, #141 ) ;
#233 = CONICAL_SURFACE ( 'NONE', #171, 4.399999999999998579, 1.221730476396032161 ) ;
#234 = CARTESIAN_POINT ( 'NONE',  ( 2.269462870248037060E-13, 5.499999999999992006, 65.00000000000000000 ) ) ;
#235 = ADVANCED_FACE ( 'NONE', ( #94 ), #120, .F. ) ;
#236 = FACE_OUTER_BOUND ( 'NONE', #80, .T. ) ;
#237 = EDGE_LOOP ( 'NONE', ( #155 ) ) ;
#238 = APPROVAL_DATE_TIME ( #29, #173 ) ;
#239 = ADVANCED_FACE ( 'NONE', ( #145, #26 ), #43, .T. ) ;
#240 = APPROVAL_STATUS ( 'not_yet_approved' ) ;
#241 = EDGE_LOOP ( 'NONE', ( #11 ) ) ;
#242 = EDGE_LOOP ( 'NONE', ( #190 ) ) ;
#243 = DIRECTION ( 'NONE',  ( 0.0000000000000000000, 1.000000000000000000, 0.0000000000000000000 ) ) ;
#244 = ADVANCED_FACE ( 'NONE', ( #3, #152 ), #253, .T. ) ;
#245 = DIRECTION ( 'NONE',  ( 3.491481338843133355E-15, 1.224646799147354045E-15, 1.000000000000000000 ) ) ;
#246 = AXIS2_PLACEMENT_3D ( 'NONE', #230, #65, #63 ) ;
#247 = DIRECTION ( 'NONE',  ( -3.491481338843133355E-15, 1.224646799147353207E-16, -1.000000000000000000 ) ) ;
#248 = DIRECTION ( 'NONE',  ( -3.491481338843133355E-15, -1.224646799147354045E-15, -1.000000000000000000 ) ) ;
#249 = DIRECTION ( 'NONE',  ( -3.491481338843133355E-15, -1.224646799147354045E-15, -1.000000000000000000 ) ) ;
#250 = CARTESIAN_POINT ( 'NONE',  ( 3.526396152231564058E-13, 5.999999999999989342, 100.9999999999999716 ) ) ;
#251 = APPROVAL ( #133, 'UNSPECIFIED' ) ;
#252 = AXIS2_PLACEMENT_3D ( 'NONE', #4, #83, #42 ) ;
#253 = CYLINDRICAL_SURFACE ( 'NONE', #246, 5.499999999999954703 ) ;
#254 = COORDINATED_UNIVERSAL_TIME_OFFSET ( 1, 0, .AHEAD. ) ;
#255 = CIRCLE ( 'NONE', #198, 5.499999999999912070 ) ;
#256 = DIRECTION ( 'NONE',  ( 4.275831445896959482E-31, 1.000000000000000000, 1.224646799147353207E-16 ) ) ;
#257 = CARTESIAN_POINT ( 'NONE',  ( 2.094888803305880013E-13, 7.347880794884124035E-14, 60.00000000000000000 ) ) ;
#258 = CARTESIAN_POINT ( 'NONE',  ( 2.094888803305880013E-13, 4.499279347985560234E-32, 60.00000000000000000 ) ) ;
#259 = APPROVAL_PERSON_ORGANIZATION ( #106, #173, #53 ) ;
#260 = DIRECTION ( 'NONE',  ( 3.491481338843133355E-15, 1.224646799147354045E-15, 1.000000000000000000 ) ) ;
#261 = FACE_BOUND ( 'NONE', #131, .T. ) ;
#262 = ADVANCED_FACE ( 'NONE', ( #236 ), #233, .T. ) ;
#263 = CARTESIAN_POINT ( 'NONE',  ( 2.094888803305880013E-13, -5.499999999999880984, 60.00000000000000000 ) ) ;
ENDSEC;
END-ISO-10303-21;
