ISO-10303-21;
HEADER;
FILE_DESCRIPTION (( 'STEP AP203' ),
    '1' );
FILE_NAME ('62892.step',
    '2021-09-21T07:46:56',
    ( '' ),
    ( '' ),
    'SwSTEP 2.0',
    'SolidWorks 2019',
    '' );
FILE_SCHEMA (( 'CONFIG_CONTROL_DESIGN' ));
ENDSEC;

DATA;
#1 = EDGE_LOOP ( 'NONE', ( #219, #22, #25 ) ) ;
#2 = CYLINDRICAL_SURFACE ( 'NONE', #285, 0.9999999999999935607 ) ;
#3 = UNCERTAINTY_MEASURE_WITH_UNIT (LENGTH_MEASURE( 1.000000000000000082E-05 ), #115, 'distance_accuracy_value', 'NONE');
#4 = ORIENTED_EDGE ( 'NONE', *, *, #47, .T. ) ;
#5 = VECTOR ( 'NONE', #232, 1000.000000000000000 ) ;
#6 = ADVANCED_FACE ( 'NONE', ( #68 ), #2, .T. ) ;
#7 = DIRECTION ( 'NONE',  ( 0.0000000000000000000, 1.000000000000000000, 0.0000000000000000000 ) ) ;
#8 = DIRECTION ( 'NONE',  ( -3.491481338843133355E-15, 1.224646799147353454E-16, -1.000000000000000000 ) ) ;
#9 = DIRECTION ( 'NONE',  ( 7.703719777549008222E-31, 1.000000000000000000, 2.168404344971027110E-16 ) ) ;
#10 = DIRECTION ( 'NONE',  ( -4.275831445896959482E-31, -1.000000000000000000, -1.224646799147353454E-16 ) ) ;
#11 = APPROVAL_PERSON_ORGANIZATION ( #147, #50, #161 ) ;
#12 = APPROVAL_STATUS ( 'not_yet_approved' ) ;
#13 = APPROVAL_ROLE ( '' ) ;
#14 = CC_DESIGN_PERSON_AND_ORGANIZATION_ASSIGNMENT ( #200, #64, ( #137 ) ) ;
#15 = DATE_AND_TIME ( #111, #66 ) ;
#16 = CARTESIAN_POINT ( 'NONE',  ( 3.491481338843135722E-15, -1.224646799147354440E-16, 1.000000000000000666 ) ) ;
#17 = EDGE_LOOP ( 'NONE', ( #135, #121, #268, #97 ) ) ;
#18 = EDGE_CURVE ( 'NONE', #45, #206, #129, .T. ) ;
#19 = PRODUCT_DEFINITION_FORMATION_WITH_SPECIFIED_SOURCE ( 'ANY', '', #82, .NOT_KNOWN. ) ;
#20 = ORIENTED_EDGE ( 'NONE', *, *, #255, .F. ) ;
#21 = APPLICATION_CONTEXT ( 'configuration controlled 3d designs of mechanical parts and assemblies' ) ;
#22 = ORIENTED_EDGE ( 'NONE', *, *, #255, .T. ) ;
#23 = MECHANICAL_CONTEXT ( 'NONE', #21, 'mechanical' ) ;
#24 = ADVANCED_BREP_SHAPE_REPRESENTATION ( '62892', ( #156, #259, #59 ), #170 ) ;
#25 = ORIENTED_EDGE ( 'NONE', *, *, #267, .T. ) ;
#26 = CLOSED_SHELL ( 'NONE', ( #198, #279, #224 ) ) ;
#27 = CARTESIAN_POINT ( 'NONE',  ( 3.491481338843135722E-15, -1.224646799147354440E-16, 1.000000000000000666 ) ) ;
#28 = AXIS2_PLACEMENT_3D ( 'NONE', #128, #178, #131 ) ;
#29 = LINE ( 'NONE', #124, #54 ) ;
#30 = CARTESIAN_POINT ( 'NONE',  ( 1.117274028429802674E-13, 0.7999999999999912736, 32.00000000000000000 ) ) ;
#31 = EDGE_CURVE ( 'NONE', #134, #204, #87, .T. ) ;
#32 = CARTESIAN_POINT ( 'NONE',  ( 1.117274028429802674E-13, 5.999039130647338745E-33, 32.00000000000000000 ) ) ;
#33 = CONICAL_SURFACE ( 'NONE', #286, 0.9999999999999915623, 0.7853981633974437271 ) ;
#34 = DIRECTION ( 'NONE',  ( -3.491481338843133355E-15, 1.224646799147353454E-16, -1.000000000000000000 ) ) ;
#35 = EDGE_CURVE ( 'NONE', #204, #134, #208, .T. ) ;
#36 = LOCAL_TIME ( 9, 46, 56.00000000000000000, #153 ) ;
#37 = SECURITY_CLASSIFICATION_LEVEL ( 'unclassified' ) ;
#38 = APPROVAL_ROLE ( '' ) ;
#39 = DIRECTION ( 'NONE',  ( 3.491481338843133355E-15, -1.224646799147353454E-16, 1.000000000000000000 ) ) ;
#40 = DESIGN_CONTEXT ( 'detailed design', #70, 'design' ) ;
#41 = DIRECTION ( 'NONE',  ( -3.491481338843133355E-15, 1.224646799147353454E-16, -1.000000000000000000 ) ) ;
#42 = DATE_TIME_ROLE ( 'creation_date' ) ;
#43 = CALENDAR_DATE ( 2021, 21, 9 ) ;
#44 = EDGE_CURVE ( 'NONE', #225, #136, #246, .T. ) ;
#45 = VERTEX_POINT ( 'NONE', #149 ) ;
#46 = COORDINATED_UNIVERSAL_TIME_OFFSET ( 1, 0, .AHEAD. ) ;
#47 = EDGE_CURVE ( 'NONE', #92, #136, #209, .T. ) ;
#48 = AXIS2_PLACEMENT_3D ( 'NONE', #213, #173, #75 ) ;
#49 = CARTESIAN_POINT ( 'NONE',  ( 0.0000000000000000000, 0.0000000000000000000, 0.0000000000000000000 ) ) ;
#50 = APPROVAL ( #217, 'UNSPECIFIED' ) ;
#51 = DIRECTION ( 'NONE',  ( -4.275831445896959482E-31, -1.000000000000000000, -1.224646799147353454E-16 ) ) ;
#52 = APPLICATION_PROTOCOL_DEFINITION ( 'international standard', 'config_control_design', 1994, #70 ) ;
#53 = LINE ( 'NONE', #250, #5 ) ;
#54 = VECTOR ( 'NONE', #123, 1000.000000000000114 ) ;
#55 = DIRECTION ( 'NONE',  ( 0.0000000000000000000, 0.0000000000000000000, 1.000000000000000000 ) ) ;
#56 = DIRECTION ( 'NONE',  ( -2.468850131082256666E-15, 0.7071067811865500152, -0.7071067811865451302 ) ) ;
#57 = PLANE ( 'NONE',  #98 ) ;
#58 = CARTESIAN_POINT ( 'NONE',  ( 1.117274028429802674E-13, 0.7999999999999912736, 32.00000000000000000 ) ) ;
#59 = AXIS2_PLACEMENT_3D ( 'NONE', #49, #55, #140 ) ;
#60 = ADVANCED_FACE ( 'NONE', ( #104 ), #273, .T. ) ;
#61 = COORDINATED_UNIVERSAL_TIME_OFFSET ( 1, 0, .AHEAD. ) ;
#62 = AXIS2_PLACEMENT_3D ( 'NONE', #32, #230, #146 ) ;
#63 = EDGE_CURVE ( 'NONE', #247, #225, #252, .T. ) ;
#64 = PERSON_AND_ORGANIZATION_ROLE ( 'creator' ) ;
#65 = VERTEX_POINT ( 'NONE', #168 ) ;
#66 = LOCAL_TIME ( 9, 46, 56.00000000000000000, #235 ) ;
#67 = ORIENTED_EDGE ( 'NONE', *, *, #35, .F. ) ;
#68 = FACE_OUTER_BOUND ( 'NONE', #141, .T. ) ;
#69 = CARTESIAN_POINT ( 'NONE',  ( 3.491481338843135722E-15, -1.224646799147354440E-16, 1.000000000000000666 ) ) ;
#70 = APPLICATION_CONTEXT ( 'configuration controlled 3d designs of mechanical parts and assemblies' ) ;
#71 = EDGE_LOOP ( 'NONE', ( #245, #186 ) ) ;
#72 = AXIS2_PLACEMENT_3D ( 'NONE', #102, #188, #78 ) ;
#73 = CARTESIAN_POINT ( 'NONE',  ( 0.0000000000000000000, 0.0000000000000000000, 0.0000000000000000000 ) ) ;
#74 = EDGE_CURVE ( 'NONE', #65, #45, #53, .T. ) ;
#75 = DIRECTION ( 'NONE',  ( 0.0000000000000000000, 1.000000000000000000, 0.0000000000000000000 ) ) ;
#76 = DIRECTION ( 'NONE',  ( 4.275831445896958607E-31, 1.000000000000000000, 1.224646799147353207E-16 ) ) ;
#77 = ADVANCED_FACE ( 'NONE', ( #194 ), #275, .F. ) ;
#78 = DIRECTION ( 'NONE',  ( -7.703719777549008222E-31, -1.000000000000000000, -2.168404344971027110E-16 ) ) ;
#79 = APPROVAL_PERSON_ORGANIZATION ( #114, #193, #38 ) ;
#80 = LINE ( 'NONE', #58, #212 ) ;
#81 = CARTESIAN_POINT ( 'NONE',  ( 3.491481338843151894E-15, 5.386046869785010479E-31, 1.000000000000005329 ) ) ;
#82 = PRODUCT ( '62892', '62892', '', ( #23 ) ) ;
#83 = AXIS2_PLACEMENT_3D ( 'NONE', #126, #171, #229 ) ;
#84 = PERSON_AND_ORGANIZATION ( #165, #256 ) ;
#85 = DIRECTION ( 'NONE',  ( 0.0000000000000000000, 1.000000000000000000, 0.0000000000000000000 ) ) ;
#86 = CC_DESIGN_PERSON_AND_ORGANIZATION_ASSIGNMENT ( #84, #284, ( #19 ) ) ;
#87 = CIRCLE ( 'NONE', #48, 0.7999999999999951594 ) ;
#88 = CALENDAR_DATE ( 2021, 21, 9 ) ;
#89 = CARTESIAN_POINT ( 'NONE',  ( 1.117274028429802674E-13, -3.918869757271531052E-15, 32.00000000000000000 ) ) ;
#90 = PERSON_AND_ORGANIZATION_ROLE ( 'design_supplier' ) ;
#91 = DATE_AND_TIME ( #43, #236 ) ;
#92 = VERTEX_POINT ( 'NONE', #276 ) ;
#93 = ORIENTED_EDGE ( 'NONE', *, *, #44, .F. ) ;
#94 = ORIENTED_EDGE ( 'NONE', *, *, #183, .T. ) ;
#95 = FACE_OUTER_BOUND ( 'NONE', #17, .T. ) ;
#96 = CC_DESIGN_PERSON_AND_ORGANIZATION_ASSIGNMENT ( #142, #226, ( #82 ) ) ;
#97 = ORIENTED_EDGE ( 'NONE', *, *, #183, .F. ) ;
#98 = AXIS2_PLACEMENT_3D ( 'NONE', #272, #248, #51 ) ;
#99 = ORIENTED_EDGE ( 'NONE', *, *, #101, .T. ) ;
#100 = CARTESIAN_POINT ( 'NONE',  ( 3.491481338843136511E-15, 0.9999999999999913403, 1.000000000000000888 ) ) ;
#101 = EDGE_CURVE ( 'NONE', #247, #92, #122, .T. ) ;
#102 = CARTESIAN_POINT ( 'NONE',  ( 3.491481338843135722E-15, -1.224646799147354440E-16, 1.000000000000000666 ) ) ;
#103 = CARTESIAN_POINT ( 'NONE',  ( 0.0000000000000000000, 0.0000000000000000000, 0.0000000000000000000 ) ) ;
#104 = FACE_OUTER_BOUND ( 'NONE', #163, .T. ) ;
#105 = CARTESIAN_POINT ( 'NONE',  ( 3.613946018757870870E-15, 0.9999999999999913403, 1.000000000000000888 ) ) ;
#106 = EDGE_CURVE ( 'NONE', #204, #247, #29, .T. ) ;
#107 = PRODUCT_DEFINITION_SHAPE ( 'NONE', 'NONE',  #137 ) ;
#108 = CC_DESIGN_APPROVAL ( #193, ( #19 ) ) ;
#109 = DATE_AND_TIME ( #130, #228 ) ;
#110 = EDGE_CURVE ( 'NONE', #92, #247, #262, .T. ) ;
#111 = CALENDAR_DATE ( 2021, 21, 9 ) ;
#112 = CLOSED_SHELL ( 'NONE', ( #281, #60, #176, #6, #242, #77 ) ) ;
#113 = AXIS2_PLACEMENT_3D ( 'NONE', #81, #254, #10 ) ;
#114 = PERSON_AND_ORGANIZATION ( #165, #256 ) ;
#115 =( LENGTH_UNIT ( ) NAMED_UNIT ( * ) SI_UNIT ( .MILLI., .METRE. ) );
#116 = DIRECTION ( 'NONE',  ( -3.491481338843133355E-15, 1.224646799147353454E-16, -1.000000000000000000 ) ) ;
#117 = ORIENTED_EDGE ( 'NONE', *, *, #74, .T. ) ;
#118 = CC_DESIGN_APPROVAL ( #50, ( #265 ) ) ;
#119 = ORIENTED_EDGE ( 'NONE', *, *, #35, .T. ) ;
#120 = ORIENTED_EDGE ( 'NONE', *, *, #106, .F. ) ;
#121 = ORIENTED_EDGE ( 'NONE', *, *, #106, .T. ) ;
#122 = CIRCLE ( 'NONE', #83, 0.9999999999999952260 ) ;
#123 = DIRECTION ( 'NONE',  ( -2.382254525458707609E-15, -0.7071067811865497932, -0.7071067811865453523 ) ) ;
#124 = CARTESIAN_POINT ( 'NONE',  ( 1.118253745869120605E-13, -0.7999999999999990452, 32.00000000000000000 ) ) ;
#125 = FACE_OUTER_BOUND ( 'NONE', #1, .T. ) ;
#126 = CARTESIAN_POINT ( 'NONE',  ( 1.110291065752116407E-13, -3.894376821288584338E-15, 31.80000000000000071 ) ) ;
#127 = CARTESIAN_POINT ( 'NONE',  ( 1.117274028429802674E-13, -3.918869757271531052E-15, 32.00000000000000000 ) ) ;
#128 = CARTESIAN_POINT ( 'NONE',  ( 3.491481338843135722E-15, -1.224646799147354440E-16, 1.000000000000000666 ) ) ;
#129 = CIRCLE ( 'NONE', #169, 0.9999999999999915623 ) ;
#130 = CALENDAR_DATE ( 2021, 21, 9 ) ;
#131 = DIRECTION ( 'NONE',  ( 7.703719777549008222E-31, 1.000000000000000000, 2.168404344971027110E-16 ) ) ;
#132 = AXIS2_PLACEMENT_3D ( 'NONE', #127, #8, #210 ) ;
#133 = DATE_AND_TIME ( #88, #36 ) ;
#134 = VERTEX_POINT ( 'NONE', #30 ) ;
#135 = ORIENTED_EDGE ( 'NONE', *, *, #31, .T. ) ;
#136 = VERTEX_POINT ( 'NONE', #100 ) ;
#137 = PRODUCT_DEFINITION ( 'UNKNOWN', '', #19, #40 ) ;
#138 = CARTESIAN_POINT ( 'NONE',  ( 1.117274028429802674E-13, -3.918869757271531052E-15, 32.00000000000000000 ) ) ;
#139 = ORIENTED_EDGE ( 'NONE', *, *, #110, .T. ) ;
#140 = DIRECTION ( 'NONE',  ( 1.000000000000000000, 0.0000000000000000000, 0.0000000000000000000 ) ) ;
#141 = EDGE_LOOP ( 'NONE', ( #287, #99, #4, #93 ) ) ;
#142 = PERSON_AND_ORGANIZATION ( #165, #256 ) ;
#143 = CARTESIAN_POINT ( 'NONE',  ( 5.738275863694207169E-14, -0.9999999999999917843, 1.000000000000000444 ) ) ;
#144 = LOCAL_TIME ( 9, 46, 56.00000000000000000, #61 ) ;
#145 = PERSON_AND_ORGANIZATION ( #165, #256 ) ;
#146 = DIRECTION ( 'NONE',  ( 4.275831445896959482E-31, 1.000000000000000000, 1.224646799147353454E-16 ) ) ;
#147 = PERSON_AND_ORGANIZATION ( #165, #256 ) ;
#148 = DIRECTION ( 'NONE',  ( -3.491481338843133355E-15, 1.224646799147353454E-16, -1.000000000000000000 ) ) ;
#149 = CARTESIAN_POINT ( 'NONE',  ( 3.491481338843134933E-15, -0.9999999999999917843, 1.000000000000000444 ) ) ;
#150 = CONICAL_SURFACE ( 'NONE', #216, 0.7999999999999951594, 0.7853981633974516097 ) ;
#151 = CARTESIAN_POINT ( 'NONE',  ( 1.114884729210191993E-13, -0.7999999999999990452, 32.00000000000000000 ) ) ;
#152 = CALENDAR_DATE ( 2021, 21, 9 ) ;
#153 = COORDINATED_UNIVERSAL_TIME_OFFSET ( 1, 0, .AHEAD. ) ;
#154 = CC_DESIGN_DATE_AND_TIME_ASSIGNMENT ( #269, #160, ( #265 ) ) ;
#155 = FACE_OUTER_BOUND ( 'NONE', #266, .T. ) ;
#156 = MANIFOLD_SOLID_BREP ( 'Corps-Déplacer/Copier1[1]', #112 ) ;
#157 = ORIENTED_EDGE ( 'NONE', *, *, #18, .T. ) ;
#158 = CIRCLE ( 'NONE', #240, 0.9999999999999915623 ) ;
#159 = ORIENTED_EDGE ( 'NONE', *, *, #63, .T. ) ;
#160 = DATE_TIME_ROLE ( 'classification_date' ) ;
#161 = APPROVAL_ROLE ( '' ) ;
#162 = ORIENTED_EDGE ( 'NONE', *, *, #244, .T. ) ;
#163 = EDGE_LOOP ( 'NONE', ( #139, #159, #220, #181 ) ) ;
#164 = AXIS2_PLACEMENT_3D ( 'NONE', #89, #175, #85 ) ;
#165 = PERSON ( 'UNSPECIFIED', 'UNSPECIFIED', 'UNSPECIFIED', ('UNSPECIFIED'), ('UNSPECIFIED'), ('UNSPECIFIED') ) ;
#166 = ORIENTED_EDGE ( 'NONE', *, *, #31, .F. ) ;
#167 = CARTESIAN_POINT ( 'NONE',  ( 3.613946018757870870E-15, 0.9999999999999913403, 1.000000000000000888 ) ) ;
#168 = CARTESIAN_POINT ( 'NONE',  ( 0.0000000000000000000, 0.0000000000000000000, 0.0000000000000000000 ) ) ;
#169 = AXIS2_PLACEMENT_3D ( 'NONE', #16, #116, #227 ) ;
#170 =( GEOMETRIC_REPRESENTATION_CONTEXT ( 3 ) GLOBAL_UNCERTAINTY_ASSIGNED_CONTEXT ( ( #3 ) ) GLOBAL_UNIT_ASSIGNED_CONTEXT ( ( #115, #202, #257 ) ) REPRESENTATION_CONTEXT ( 'NONE', 'WORKASPACE' ) );
#171 = DIRECTION ( 'NONE',  ( -3.491481338843133355E-15, 1.224646799147353454E-16, -1.000000000000000000 ) ) ;
#172 = CARTESIAN_POINT ( 'NONE',  ( 4.275831445896931456E-31, 0.9999999999999935607, 1.224646799147345319E-16 ) ) ;
#173 = DIRECTION ( 'NONE',  ( -3.491481338843133355E-15, 1.224646799147353454E-16, -1.000000000000000000 ) ) ;
#174 = AXIS2_PLACEMENT_3D ( 'NONE', #103, #34, #76 ) ;
#175 = DIRECTION ( 'NONE',  ( -3.491481338843133355E-15, 1.224646799147353454E-16, -1.000000000000000000 ) ) ;
#176 = ADVANCED_FACE ( 'NONE', ( #277 ), #190, .F. ) ;
#177 = PERSON_AND_ORGANIZATION ( #165, #256 ) ;
#178 = DIRECTION ( 'NONE',  ( -3.491481338843133355E-15, 1.224646799147353454E-16, -1.000000000000000000 ) ) ;
#179 = APPROVAL ( #197, 'UNSPECIFIED' ) ;
#180 = PERSON_AND_ORGANIZATION_ROLE ( 'classification_officer' ) ;
#181 = ORIENTED_EDGE ( 'NONE', *, *, #47, .F. ) ;
#182 = AXIS2_PLACEMENT_3D ( 'NONE', #27, #231, #9 ) ;
#183 = EDGE_CURVE ( 'NONE', #134, #92, #80, .T. ) ;
#184 = EDGE_LOOP ( 'NONE', ( #166, #67 ) ) ;
#185 = DIRECTION ( 'NONE',  ( 0.0000000000000000000, 1.000000000000000000, 0.0000000000000000000 ) ) ;
#186 = ORIENTED_EDGE ( 'NONE', *, *, #267, .F. ) ;
#187 = VECTOR ( 'NONE', #214, 1000.000000000000000 ) ;
#188 = DIRECTION ( 'NONE',  ( 3.491481338843133355E-15, -1.224646799147353454E-16, 1.000000000000000000 ) ) ;
#189 = PRODUCT_RELATED_PRODUCT_CATEGORY ( 'detail', '', ( #82 ) ) ;
#190 = PLANE ( 'NONE',  #113 ) ;
#191 = DIRECTION ( 'NONE',  ( -3.491481338843133355E-15, 1.224646799147353454E-16, -1.000000000000000000 ) ) ;
#192 = VECTOR ( 'NONE', #191, 1000.000000000000000 ) ;
#193 = APPROVAL ( #12, 'UNSPECIFIED' ) ;
#194 = FACE_OUTER_BOUND ( 'NONE', #184, .T. ) ;
#195 = CARTESIAN_POINT ( 'NONE',  ( 1.110291065752116407E-13, -3.894376821288584338E-15, 31.80000000000000071 ) ) ;
#196 = APPROVAL_PERSON_ORGANIZATION ( #145, #179, #13 ) ;
#197 = APPROVAL_STATUS ( 'not_yet_approved' ) ;
#198 = ADVANCED_FACE ( 'NONE', ( #125 ), #270, .T. ) ;
#199 = CIRCLE ( 'NONE', #28, 0.9999999999999915623 ) ;
#200 = PERSON_AND_ORGANIZATION ( #165, #256 ) ;
#201 = SHAPE_DEFINITION_REPRESENTATION ( #107, #24 ) ;
#202 =( NAMED_UNIT ( * ) PLANE_ANGLE_UNIT ( ) SI_UNIT ( $, .RADIAN. ) );
#203 = CC_DESIGN_APPROVAL ( #179, ( #137 ) ) ;
#204 = VERTEX_POINT ( 'NONE', #151 ) ;
#205 = DIRECTION ( 'NONE',  ( -7.703719777549008222E-31, -1.000000000000000000, -2.168404344971027110E-16 ) ) ;
#206 = VERTEX_POINT ( 'NONE', #167 ) ;
#207 = ORIENTED_EDGE ( 'NONE', *, *, #44, .T. ) ;
#208 = CIRCLE ( 'NONE', #132, 0.7999999999999951594 ) ;
#209 = LINE ( 'NONE', #172, #192 ) ;
#210 = DIRECTION ( 'NONE',  ( 0.0000000000000000000, 1.000000000000000000, 0.0000000000000000000 ) ) ;
#211 = CARTESIAN_POINT ( 'NONE',  ( 1.224646799147341128E-16, -0.9999999999999935607, -1.224646799147349756E-16 ) ) ;
#212 = VECTOR ( 'NONE', #56, 1000.000000000000114 ) ;
#213 = CARTESIAN_POINT ( 'NONE',  ( 1.117274028429802674E-13, -3.918869757271531052E-15, 32.00000000000000000 ) ) ;
#214 = DIRECTION ( 'NONE',  ( -3.491481338843133355E-15, 1.224646799147353454E-16, -1.000000000000000000 ) ) ;
#215 = CC_DESIGN_DATE_AND_TIME_ASSIGNMENT ( #15, #42, ( #137 ) ) ;
#216 = AXIS2_PLACEMENT_3D ( 'NONE', #138, #271, #185 ) ;
#217 = APPROVAL_STATUS ( 'not_yet_approved' ) ;
#218 = DIRECTION ( 'NONE',  ( 4.275831445896958607E-31, 1.000000000000000000, 1.224646799147353207E-16 ) ) ;
#219 = ORIENTED_EDGE ( 'NONE', *, *, #74, .F. ) ;
#220 = ORIENTED_EDGE ( 'NONE', *, *, #244, .F. ) ;
#221 = CC_DESIGN_SECURITY_CLASSIFICATION ( #265, ( #19 ) ) ;
#222 = EDGE_LOOP ( 'NONE', ( #120, #119, #94, #243 ) ) ;
#223 = APPROVAL_DATE_TIME ( #91, #50 ) ;
#224 = ADVANCED_FACE ( 'NONE', ( #253 ), #57, .T. ) ;
#225 = VERTEX_POINT ( 'NONE', #143 ) ;
#226 = PERSON_AND_ORGANIZATION_ROLE ( 'design_owner' ) ;
#227 = DIRECTION ( 'NONE',  ( 7.703719777549008222E-31, 1.000000000000000000, 2.168404344971027110E-16 ) ) ;
#228 = LOCAL_TIME ( 9, 46, 56.00000000000000000, #264 ) ;
#229 = DIRECTION ( 'NONE',  ( 0.0000000000000000000, 1.000000000000000000, 0.0000000000000000000 ) ) ;
#230 = DIRECTION ( 'NONE',  ( -3.491481338843133355E-15, 1.224646799147353454E-16, -1.000000000000000000 ) ) ;
#231 = DIRECTION ( 'NONE',  ( -3.491481338843133355E-15, 1.224646799147353454E-16, -1.000000000000000000 ) ) ;
#232 = DIRECTION ( 'NONE',  ( 2.468850131082276388E-15, -0.7071067811865443531, 0.7071067811865506814 ) ) ;
#233 = CC_DESIGN_PERSON_AND_ORGANIZATION_ASSIGNMENT ( #177, #90, ( #19 ) ) ;
#234 = LINE ( 'NONE', #105, #282 ) ;
#235 = COORDINATED_UNIVERSAL_TIME_OFFSET ( 1, 0, .AHEAD. ) ;
#236 = LOCAL_TIME ( 9, 46, 56.00000000000000000, #46 ) ;
#237 = CARTESIAN_POINT ( 'NONE',  ( 5.738275863694193285E-14, -0.9999999999999991118, 31.80000000000000071 ) ) ;
#238 = DIRECTION ( 'NONE',  ( 2.555445736705825840E-15, 0.7071067811865441310, 0.7071067811865507924 ) ) ;
#239 = APPROVAL_DATE_TIME ( #133, #179 ) ;
#240 = AXIS2_PLACEMENT_3D ( 'NONE', #283, #260, #258 ) ;
#241 = EDGE_LOOP ( 'NONE', ( #162, #207 ) ) ;
#242 = ADVANCED_FACE ( 'NONE', ( #280 ), #251, .T. ) ;
#243 = ORIENTED_EDGE ( 'NONE', *, *, #101, .F. ) ;
#244 = EDGE_CURVE ( 'NONE', #136, #225, #158, .T. ) ;
#245 = ORIENTED_EDGE ( 'NONE', *, *, #18, .F. ) ;
#246 = CIRCLE ( 'NONE', #182, 0.9999999999999915623 ) ;
#247 = VERTEX_POINT ( 'NONE', #237 ) ;
#248 = DIRECTION ( 'NONE',  ( 3.491481338843133355E-15, -1.224646799147353454E-16, 1.000000000000000000 ) ) ;
#249 = APPLICATION_PROTOCOL_DEFINITION ( 'international standard', 'config_control_design', 1994, #21 ) ;
#250 = CARTESIAN_POINT ( 'NONE',  ( 3.491481338843134933E-15, -0.9999999999999917843, 1.000000000000000444 ) ) ;
#251 = CONICAL_SURFACE ( 'NONE', #164, 0.7999999999999951594, 0.7853981633974516097 ) ;
#252 = LINE ( 'NONE', #211, #187 ) ;
#253 = FACE_OUTER_BOUND ( 'NONE', #71, .T. ) ;
#254 = DIRECTION ( 'NONE',  ( 3.491481338843133355E-15, -1.224646799147353454E-16, 1.000000000000000000 ) ) ;
#255 = EDGE_CURVE ( 'NONE', #65, #206, #234, .T. ) ;
#256 = ORGANIZATION ( 'UNSPECIFIED', 'UNSPECIFIED', '' ) ;
#257 =( NAMED_UNIT ( * ) SI_UNIT ( $, .STERADIAN. ) SOLID_ANGLE_UNIT ( ) );
#258 = DIRECTION ( 'NONE',  ( 7.703719777549008222E-31, 1.000000000000000000, 2.168404344971027110E-16 ) ) ;
#259 = MANIFOLD_SOLID_BREP ( 'Corps-Déplacer/Copier1[2]', #26 ) ;
#260 = DIRECTION ( 'NONE',  ( -3.491481338843133355E-15, 1.224646799147353454E-16, -1.000000000000000000 ) ) ;
#261 = PERSON_AND_ORGANIZATION ( #165, #256 ) ;
#262 = CIRCLE ( 'NONE', #278, 0.9999999999999952260 ) ;
#263 = APPROVAL_DATE_TIME ( #109, #193 ) ;
#264 = COORDINATED_UNIVERSAL_TIME_OFFSET ( 1, 0, .AHEAD. ) ;
#265 = SECURITY_CLASSIFICATION ( '', '', #37 ) ;
#266 = EDGE_LOOP ( 'NONE', ( #20, #117, #157 ) ) ;
#267 = EDGE_CURVE ( 'NONE', #206, #45, #199, .T. ) ;
#268 = ORIENTED_EDGE ( 'NONE', *, *, #110, .F. ) ;
#269 = DATE_AND_TIME ( #152, #144 ) ;
#270 = CONICAL_SURFACE ( 'NONE', #72, 0.9999999999999915623, 0.7853981633974437271 ) ;
#271 = DIRECTION ( 'NONE',  ( -3.491481338843133355E-15, 1.224646799147353454E-16, -1.000000000000000000 ) ) ;
#272 = CARTESIAN_POINT ( 'NONE',  ( 3.491481338843151894E-15, 5.386046869785010479E-31, 1.000000000000005329 ) ) ;
#273 = CYLINDRICAL_SURFACE ( 'NONE', #174, 0.9999999999999935607 ) ;
#274 = CC_DESIGN_PERSON_AND_ORGANIZATION_ASSIGNMENT ( #261, #180, ( #265 ) ) ;
#275 = PLANE ( 'NONE',  #62 ) ;
#276 = CARTESIAN_POINT ( 'NONE',  ( 1.110291065752116407E-13, 0.9999999999999913403, 31.80000000000000071 ) ) ;
#277 = FACE_OUTER_BOUND ( 'NONE', #241, .T. ) ;
#278 = AXIS2_PLACEMENT_3D ( 'NONE', #195, #148, #7 ) ;
#279 = ADVANCED_FACE ( 'NONE', ( #155 ), #33, .T. ) ;
#280 = FACE_OUTER_BOUND ( 'NONE', #222, .T. ) ;
#281 = ADVANCED_FACE ( 'NONE', ( #95 ), #150, .T. ) ;
#282 = VECTOR ( 'NONE', #238, 1000.000000000000000 ) ;
#283 = CARTESIAN_POINT ( 'NONE',  ( 3.491481338843135722E-15, -1.224646799147354440E-16, 1.000000000000000666 ) ) ;
#284 = PERSON_AND_ORGANIZATION_ROLE ( 'creator' ) ;
#285 = AXIS2_PLACEMENT_3D ( 'NONE', #73, #41, #218 ) ;
#286 = AXIS2_PLACEMENT_3D ( 'NONE', #69, #39, #205 ) ;
#287 = ORIENTED_EDGE ( 'NONE', *, *, #63, .F. ) ;
ENDSEC;
END-ISO-10303-21;
