ISO-10303-21;
HEADER;
FILE_DESCRIPTION (( 'STEP AP203' ),
    '1' );
FILE_NAME ('62891.step',
    '2021-10-15T09:34:19',
    ( '' ),
    ( '' ),
    'SwSTEP 2.0',
    'SolidWorks 2019',
    '' );
FILE_SCHEMA (( 'CONFIG_CONTROL_DESIGN' ));
ENDSEC;

DATA;
#1 = APPLICATION_CONTEXT ( 'configuration controlled 3d designs of mechanical parts and assemblies' ) ;
#2 = DIRECTION ( 'NONE',  ( 1.000000000000000000, 0.0000000000000000000, 0.0000000000000000000 ) ) ;
#3 = CARTESIAN_POINT ( 'NONE',  ( 2.269462870248037060E-13, 5.399999999999993250, 65.00000000000000000 ) ) ;
#4 = DATE_AND_TIME ( #5, #29 ) ;
#5 = CALENDAR_DATE ( 2021, 15, 10 ) ;
#6 = AXIS2_PLACEMENT_3D ( 'NONE', #113, #154, #191 ) ;
#7 = PERSON_AND_ORGANIZATION ( #112, #209 ) ;
#8 = DATE_AND_TIME ( #66, #233 ) ;
#9 = ORIENTED_EDGE ( 'NONE', *, *, #40, .T. ) ;
#10 = ORIENTED_EDGE ( 'NONE', *, *, #31, .F. ) ;
#11 = CC_DESIGN_SECURITY_CLASSIFICATION ( #139, ( #105 ) ) ;
#12 = EDGE_LOOP ( 'NONE', ( #125 ) ) ;
#13 = ORIENTED_EDGE ( 'NONE', *, *, #145, .T. ) ;
#14 = DIRECTION ( 'NONE',  ( -4.275831445896958607E-31, -1.000000000000000000, -1.224646799147353207E-16 ) ) ;
#15 = CC_DESIGN_APPROVAL ( #179, ( #139 ) ) ;
#16 = CARTESIAN_POINT ( 'NONE',  ( 3.561310965619995770E-13, -1.249139735130300089E-14, 102.0000000000000000 ) ) ;
#17 = DIRECTION ( 'NONE',  ( -3.491481338843133355E-15, -1.224646799147354045E-15, -1.000000000000000000 ) ) ;
#18 = FACE_OUTER_BOUND ( 'NONE', #255, .T. ) ;
#19 = CARTESIAN_POINT ( 'NONE',  ( 0.0000000000000000000, 0.0000000000000000000, 0.0000000000000000000 ) ) ;
#20 =( GEOMETRIC_REPRESENTATION_CONTEXT ( 3 ) GLOBAL_UNCERTAINTY_ASSIGNED_CONTEXT ( ( #62 ) ) GLOBAL_UNIT_ASSIGNED_CONTEXT ( ( #200, #225, #141 ) ) REPRESENTATION_CONTEXT ( 'NONE', 'WORKASPACE' ) );
#21 = DIRECTION ( 'NONE',  ( 3.491481338843133355E-15, 1.224646799147354045E-15, 1.000000000000000000 ) ) ;
#22 = DIRECTION ( 'NONE',  ( -3.491481338843133355E-15, -1.224646799147354045E-15, -1.000000000000000000 ) ) ;
#23 = DIRECTION ( 'NONE',  ( -4.279844320860526298E-30, 1.000000000000000000, -1.204669080539449985E-15 ) ) ;
#24 = CONICAL_SURFACE ( 'NONE', #201, 6.499999999999910294, 0.5235987755982968173 ) ;
#25 = APPROVAL_ROLE ( '' ) ;
#26 = PERSON_AND_ORGANIZATION ( #112, #209 ) ;
#27 = ORIENTED_EDGE ( 'NONE', *, *, #196, .T. ) ;
#28 = DATE_TIME_ROLE ( 'classification_date' ) ;
#29 = LOCAL_TIME ( 11, 34, 19.00000000000000000, #43 ) ;
#30 = APPROVAL_ROLE ( '' ) ;
#31 = EDGE_CURVE ( 'NONE', #246, #246, #227, .T. ) ;
#32 = CARTESIAN_POINT ( 'NONE',  ( 2.094888803305880013E-13, 4.499279347985560234E-32, 60.00000000000000000 ) ) ;
#33 = ADVANCED_FACE ( 'NONE', ( #263, #213 ), #24, .T. ) ;
#34 = CARTESIAN_POINT ( 'NONE',  ( 3.526396152231564058E-13, -1.236893267138826416E-14, 100.9999999999999716 ) ) ;
#35 = APPROVAL ( #85, 'UNSPECIFIED' ) ;
#36 = DIRECTION ( 'NONE',  ( -3.491481338843133355E-15, 1.224646799147353207E-16, -1.000000000000000000 ) ) ;
#37 = CYLINDRICAL_SURFACE ( 'NONE', #222, 5.399999999999955058 ) ;
#38 = DIRECTION ( 'NONE',  ( -3.491481338843133355E-15, 1.224646799147353207E-16, -1.000000000000000000 ) ) ;
#39 = CARTESIAN_POINT ( 'NONE',  ( 2.094888803305880013E-13, 4.499279347985560234E-32, 60.00000000000000000 ) ) ;
#40 = EDGE_CURVE ( 'NONE', #57, #57, #54, .T. ) ;
#41 = FACE_BOUND ( 'NONE', #237, .T. ) ;
#42 = EDGE_LOOP ( 'NONE', ( #235 ) ) ;
#43 = COORDINATED_UNIVERSAL_TIME_OFFSET ( 1, 0, .AHEAD. ) ;
#44 = AXIS2_PLACEMENT_3D ( 'NONE', #39, #74, #73 ) ;
#45 = DIRECTION ( 'NONE',  ( 0.0000000000000000000, 1.000000000000000000, 0.0000000000000000000 ) ) ;
#46 = ADVANCED_FACE ( 'NONE', ( #190 ), #50, .T. ) ;
#47 = AXIS2_PLACEMENT_3D ( 'NONE', #48, #70, #136 ) ;
#48 = CARTESIAN_POINT ( 'NONE',  ( 3.561310965619995770E-13, 3.749399456654627598E-32, 102.0000000000000000 ) ) ;
#49 = APPROVAL ( #250, 'UNSPECIFIED' ) ;
#50 = PLANE ( 'NONE',  #176 ) ;
#51 = DIRECTION ( 'NONE',  ( -4.274896523957797760E-30, 1.000000000000000000, -1.203276399521485414E-15 ) ) ;
#52 = DIRECTION ( 'NONE',  ( 3.491481338843133355E-15, 1.224646799147354045E-15, 1.000000000000000000 ) ) ;
#53 = VERTEX_POINT ( 'NONE', #197 ) ;
#54 = CIRCLE ( 'NONE', #121, 5.399999999999913314 ) ;
#55 = CONICAL_SURFACE ( 'NONE', #100, 5.399999999999997691, 1.082104136236485381 ) ;
#56 = CC_DESIGN_PERSON_AND_ORGANIZATION_ASSIGNMENT ( #26, #128, ( #139 ) ) ;
#57 = VERTEX_POINT ( 'NONE', #3 ) ;
#58 = DIRECTION ( 'NONE',  ( 4.279844320860526298E-30, -1.000000000000000000, 1.204669080539449985E-15 ) ) ;
#59 = PRODUCT_DEFINITION_SHAPE ( 'NONE', 'NONE',  #211 ) ;
#60 = ORIENTED_EDGE ( 'NONE', *, *, #196, .F. ) ;
#61 = APPROVAL_PERSON_ORGANIZATION ( #103, #35, #203 ) ;
#62 = UNCERTAINTY_MEASURE_WITH_UNIT (LENGTH_MEASURE( 1.000000000000000082E-05 ), #200, 'distance_accuracy_value', 'NONE');
#63 = DATE_AND_TIME ( #183, #122 ) ;
#64 = EDGE_LOOP ( 'NONE', ( #82 ) ) ;
#65 = CIRCLE ( 'NONE', #114, 5.000000000000001776 ) ;
#66 = CALENDAR_DATE ( 2021, 15, 10 ) ;
#67 = DIRECTION ( 'NONE',  ( 3.491481338843133355E-15, 1.224646799147354045E-15, 1.000000000000000000 ) ) ;
#68 = ORIENTED_EDGE ( 'NONE', *, *, #80, .F. ) ;
#69 = DIRECTION ( 'NONE',  ( -3.491481338843133355E-15, 1.224646799147353207E-16, -1.000000000000000000 ) ) ;
#70 = DIRECTION ( 'NONE',  ( -3.491481338843133355E-15, 1.224646799147353207E-16, -1.000000000000000000 ) ) ;
#71 = CARTESIAN_POINT ( 'NONE',  ( 3.561310965619995770E-13, -1.249139735130300089E-14, 102.0000000000000000 ) ) ;
#72 = AXIS2_PLACEMENT_3D ( 'NONE', #116, #22, #23 ) ;
#73 = DIRECTION ( 'NONE',  ( -4.275831445896958607E-31, -1.000000000000000000, -1.224646799147353207E-16 ) ) ;
#74 = DIRECTION ( 'NONE',  ( 3.491481338843133355E-15, -1.224646799147353207E-16, 1.000000000000000000 ) ) ;
#75 = EDGE_CURVE ( 'NONE', #160, #160, #208, .T. ) ;
#76 = PRODUCT ( '62891', '62891', '', ( #142 ) ) ;
#77 = VERTEX_POINT ( 'NONE', #226 ) ;
#78 = CC_DESIGN_PERSON_AND_ORGANIZATION_ASSIGNMENT ( #253, #152, ( #211 ) ) ;
#79 = FACE_OUTER_BOUND ( 'NONE', #186, .T. ) ;
#80 = EDGE_CURVE ( 'NONE', #96, #96, #247, .T. ) ;
#81 = PERSON_AND_ORGANIZATION_ROLE ( 'design_supplier' ) ;
#82 = ORIENTED_EDGE ( 'NONE', *, *, #31, .T. ) ;
#83 = COORDINATED_UNIVERSAL_TIME_OFFSET ( 1, 0, .AHEAD. ) ;
#84 = EDGE_CURVE ( 'NONE', #53, #53, #240, .T. ) ;
#85 = APPROVAL_STATUS ( 'not_yet_approved' ) ;
#86 = PERSON_AND_ORGANIZATION_ROLE ( 'creator' ) ;
#87 = EDGE_LOOP ( 'NONE', ( #229 ) ) ;
#88 = ORIENTED_EDGE ( 'NONE', *, *, #40, .F. ) ;
#89 = DIRECTION ( 'NONE',  ( 3.491481338843133355E-15, 1.224646799147354045E-15, 1.000000000000000000 ) ) ;
#90 = CARTESIAN_POINT ( 'NONE',  ( 2.094888803305880013E-13, 7.347880794884124035E-14, 60.00000000000000000 ) ) ;
#91 = DIRECTION ( 'NONE',  ( 8.217301096052207241E-30, -1.000000000000000000, 2.312964634635743056E-15 ) ) ;
#92 = ADVANCED_FACE ( 'NONE', ( #244, #214 ), #110, .T. ) ;
#93 = DIRECTION ( 'NONE',  ( -4.279844320860559929E-30, 1.000000000000000000, -1.204669080539459451E-15 ) ) ;
#94 = APPROVAL_PERSON_ORGANIZATION ( #7, #179, #30 ) ;
#95 = ADVANCED_FACE ( 'NONE', ( #172 ), #115, .F. ) ;
#96 = VERTEX_POINT ( 'NONE', #178 ) ;
#97 = VERTEX_POINT ( 'NONE', #221 ) ;
#98 = CARTESIAN_POINT ( 'NONE',  ( 2.305747408683372160E-13, -5.999999999999918288, 66.03923048454149125 ) ) ;
#99 = CLOSED_SHELL ( 'NONE', ( #254, #150, #95, #92, #33, #248 ) ) ;
#100 = AXIS2_PLACEMENT_3D ( 'NONE', #119, #21, #58 ) ;
#101 = FACE_OUTER_BOUND ( 'NONE', #210, .T. ) ;
#102 = SECURITY_CLASSIFICATION_LEVEL ( 'unclassified' ) ;
#103 = PERSON_AND_ORGANIZATION ( #112, #209 ) ;
#104 = COORDINATED_UNIVERSAL_TIME_OFFSET ( 1, 0, .AHEAD. ) ;
#105 = PRODUCT_DEFINITION_FORMATION_WITH_SPECIFIED_SOURCE ( 'ANY', '', #76, .NOT_KNOWN. ) ;
#106 = ORIENTED_EDGE ( 'NONE', *, *, #75, .F. ) ;
#107 = CC_DESIGN_PERSON_AND_ORGANIZATION_ASSIGNMENT ( #223, #120, ( #76 ) ) ;
#108 = APPROVAL_DATE_TIME ( #8, #49 ) ;
#109 = AXIS2_PLACEMENT_3D ( 'NONE', #220, #181, #2 ) ;
#110 = CYLINDRICAL_SURFACE ( 'NONE', #155, 5.399999999999955058 ) ;
#111 = CARTESIAN_POINT ( 'NONE',  ( 2.335984524046141397E-13, 8.193530746977282369E-14, 66.90525588832576886 ) ) ;
#112 = PERSON ( 'UNSPECIFIED', 'UNSPECIFIED', 'UNSPECIFIED', ('UNSPECIFIED'), ('UNSPECIFIED'), ('UNSPECIFIED') ) ;
#113 = CARTESIAN_POINT ( 'NONE',  ( 2.094888803305880013E-13, 7.347880794884124035E-14, 60.00000000000000000 ) ) ;
#114 = AXIS2_PLACEMENT_3D ( 'NONE', #71, #38, #45 ) ;
#115 = PLANE ( 'NONE',  #47 ) ;
#116 = CARTESIAN_POINT ( 'NONE',  ( 7.491877164818428168E-15, 2.627796771366979210E-15, 2.145758902237405064 ) ) ;
#117 = MANIFOLD_SOLID_BREP ( 'Corps-Déplacer/Copier1[1]', #99 ) ;
#118 = DIRECTION ( 'NONE',  ( -3.491481338843133355E-15, 1.224646799147353207E-16, -1.000000000000000000 ) ) ;
#119 = CARTESIAN_POINT ( 'NONE',  ( 7.491877164818428168E-15, 2.627796771366979210E-15, 2.145758902237405064 ) ) ;
#120 = PERSON_AND_ORGANIZATION_ROLE ( 'design_owner' ) ;
#121 = AXIS2_PLACEMENT_3D ( 'NONE', #137, #215, #134 ) ;
#122 = LOCAL_TIME ( 11, 34, 19.00000000000000000, #104 ) ;
#123 = VERTEX_POINT ( 'NONE', #177 ) ;
#124 = APPROVAL_DATE_TIME ( #4, #35 ) ;
#125 = ORIENTED_EDGE ( 'NONE', *, *, #252, .T. ) ;
#126 = PERSON_AND_ORGANIZATION ( #112, #209 ) ;
#127 = EDGE_LOOP ( 'NONE', ( #10 ) ) ;
#128 = PERSON_AND_ORGANIZATION_ROLE ( 'classification_officer' ) ;
#129 = AXIS2_PLACEMENT_3D ( 'NONE', #259, #241, #51 ) ;
#130 = AXIS2_PLACEMENT_3D ( 'NONE', #19, #118, #159 ) ;
#131 = DATE_AND_TIME ( #147, #151 ) ;
#132 = ORIENTED_EDGE ( 'NONE', *, *, #80, .T. ) ;
#133 = CC_DESIGN_PERSON_AND_ORGANIZATION_ASSIGNMENT ( #165, #86, ( #105 ) ) ;
#134 = DIRECTION ( 'NONE',  ( 0.0000000000000000000, 1.000000000000000000, 0.0000000000000000000 ) ) ;
#135 = AXIS2_PLACEMENT_3D ( 'NONE', #16, #69, #156 ) ;
#136 = DIRECTION ( 'NONE',  ( 4.275831445896958607E-31, 1.000000000000000000, 1.224646799147353207E-16 ) ) ;
#137 = CARTESIAN_POINT ( 'NONE',  ( 2.269462870248037060E-13, 7.960204194457801038E-14, 65.00000000000000000 ) ) ;
#138 = FACE_OUTER_BOUND ( 'NONE', #87, .T. ) ;
#139 = SECURITY_CLASSIFICATION ( '', '', #102 ) ;
#140 = CARTESIAN_POINT ( 'NONE',  ( 2.305747408683371655E-13, 8.087473223104810132E-14, 66.03923048454147704 ) ) ;
#141 =( NAMED_UNIT ( * ) SI_UNIT ( $, .STERADIAN. ) SOLID_ANGLE_UNIT ( ) );
#142 = MECHANICAL_CONTEXT ( 'NONE', #1, 'mechanical' ) ;
#143 = CLOSED_SHELL ( 'NONE', ( #46, #217, #232, #192 ) ) ;
#144 = APPLICATION_PROTOCOL_DEFINITION ( 'international standard', 'config_control_design', 1994, #1 ) ;
#145 = EDGE_CURVE ( 'NONE', #123, #123, #188, .T. ) ;
#146 = FACE_OUTER_BOUND ( 'NONE', #257, .T. ) ;
#147 = CALENDAR_DATE ( 2021, 15, 10 ) ;
#148 = DATE_AND_TIME ( #236, #158 ) ;
#149 = ORIENTED_EDGE ( 'NONE', *, *, #84, .T. ) ;
#150 = ADVANCED_FACE ( 'NONE', ( #261, #216 ), #180, .T. ) ;
#151 = LOCAL_TIME ( 11, 34, 19.00000000000000000, #231 ) ;
#152 = PERSON_AND_ORGANIZATION_ROLE ( 'creator' ) ;
#153 = DIRECTION ( 'NONE',  ( 4.274896523957797059E-30, -1.000000000000000000, 1.203276399521485216E-15 ) ) ;
#154 = DIRECTION ( 'NONE',  ( -3.491481338843133355E-15, 1.224646799147353207E-16, -1.000000000000000000 ) ) ;
#155 = AXIS2_PLACEMENT_3D ( 'NONE', #174, #193, #262 ) ;
#156 = DIRECTION ( 'NONE',  ( 0.0000000000000000000, 1.000000000000000000, 0.0000000000000000000 ) ) ;
#157 = DIRECTION ( 'NONE',  ( -3.491481338843133355E-15, 1.224646799147353207E-16, -1.000000000000000000 ) ) ;
#158 = LOCAL_TIME ( 11, 34, 19.00000000000000000, #83 ) ;
#159 = DIRECTION ( 'NONE',  ( 4.275831445896959482E-31, 1.000000000000000000, 1.224646799147353207E-16 ) ) ;
#160 = VERTEX_POINT ( 'NONE', #98 ) ;
#161 = PLANE ( 'NONE',  #44 ) ;
#162 = APPLICATION_PROTOCOL_DEFINITION ( 'international standard', 'config_control_design', 1994, #204 ) ;
#163 = AXIS2_PLACEMENT_3D ( 'NONE', #34, #157, #219 ) ;
#164 = EDGE_LOOP ( 'NONE', ( #9 ) ) ;
#165 = PERSON_AND_ORGANIZATION ( #112, #209 ) ;
#166 = APPROVAL_STATUS ( 'not_yet_approved' ) ;
#167 = ORIENTED_EDGE ( 'NONE', *, *, #145, .F. ) ;
#168 = PRODUCT_RELATED_PRODUCT_CATEGORY ( 'detail', '', ( #76 ) ) ;
#169 = ORIENTED_EDGE ( 'NONE', *, *, #75, .T. ) ;
#170 = CARTESIAN_POINT ( 'NONE',  ( 5.496189589610521179E-15, 1.927803798789240500E-15, 1.574171263201317172 ) ) ;
#171 = EDGE_LOOP ( 'NONE', ( #60 ) ) ;
#172 = FACE_OUTER_BOUND ( 'NONE', #171, .T. ) ;
#173 = AXIS2_PLACEMENT_3D ( 'NONE', #170, #67, #153 ) ;
#174 = CARTESIAN_POINT ( 'NONE',  ( -3.491481338843130200E-15, -1.224646799147353059E-15, -0.9999999999999991118 ) ) ;
#175 = DIRECTION ( 'NONE',  ( 7.585201011740602903E-30, -1.000000000000000000, 2.135044278125330531E-15 ) ) ;
#176 = AXIS2_PLACEMENT_3D ( 'NONE', #32, #258, #14 ) ;
#177 = CARTESIAN_POINT ( 'NONE',  ( 3.526396152231564058E-13, 5.999999999999989342, 100.9999999999999716 ) ) ;
#178 = CARTESIAN_POINT ( 'NONE',  ( 5.496189589610502247E-15, 4.324999999999999289, 1.574171263201311843 ) ) ;
#179 = APPROVAL ( #166, 'UNSPECIFIED' ) ;
#180 = CONICAL_SURFACE ( 'NONE', #135, 5.000000000000001776, 0.7853981633974410625 ) ;
#181 = DIRECTION ( 'NONE',  ( 0.0000000000000000000, 0.0000000000000000000, 1.000000000000000000 ) ) ;
#182 = CIRCLE ( 'NONE', #72, 5.399999999999997691 ) ;
#183 = CALENDAR_DATE ( 2021, 15, 10 ) ;
#184 = EDGE_LOOP ( 'NONE', ( #167 ) ) ;
#185 = COORDINATED_UNIVERSAL_TIME_OFFSET ( 1, 0, .AHEAD. ) ;
#186 = EDGE_LOOP ( 'NONE', ( #13 ) ) ;
#187 = AXIS2_PLACEMENT_3D ( 'NONE', #140, #52, #91 ) ;
#188 = CIRCLE ( 'NONE', #163, 6.000000000000001776 ) ;
#189 = DIRECTION ( 'NONE',  ( 0.0000000000000000000, -1.000000000000000000, 0.0000000000000000000 ) ) ;
#190 = FACE_OUTER_BOUND ( 'NONE', #127, .T. ) ;
#191 = DIRECTION ( 'NONE',  ( 0.0000000000000000000, -1.000000000000000000, 0.0000000000000000000 ) ) ;
#192 = ADVANCED_FACE ( 'NONE', ( #242, #138 ), #37, .T. ) ;
#193 = DIRECTION ( 'NONE',  ( -3.491481338843133355E-15, -1.224646799147354045E-15, -1.000000000000000000 ) ) ;
#194 = EDGE_LOOP ( 'NONE', ( #88 ) ) ;
#195 = FACE_OUTER_BOUND ( 'NONE', #12, .T. ) ;
#196 = EDGE_CURVE ( 'NONE', #77, #77, #65, .T. ) ;
#197 = CARTESIAN_POINT ( 'NONE',  ( 2.094888803305880013E-13, -5.399999999999881339, 60.00000000000000000 ) ) ;
#198 = PERSON_AND_ORGANIZATION ( #112, #209 ) ;
#199 = CC_DESIGN_PERSON_AND_ORGANIZATION_ASSIGNMENT ( #126, #81, ( #105 ) ) ;
#200 =( LENGTH_UNIT ( ) NAMED_UNIT ( * ) SI_UNIT ( .MILLI., .METRE. ) );
#201 = AXIS2_PLACEMENT_3D ( 'NONE', #111, #89, #175 ) ;
#202 = CARTESIAN_POINT ( 'NONE',  ( 2.094888803305880013E-13, -5.399999999999881339, 60.00000000000000000 ) ) ;
#203 = APPROVAL_ROLE ( '' ) ;
#204 = APPLICATION_CONTEXT ( 'configuration controlled 3d designs of mechanical parts and assemblies' ) ;
#205 = EDGE_LOOP ( 'NONE', ( #106 ) ) ;
#206 = DATE_TIME_ROLE ( 'creation_date' ) ;
#207 = MANIFOLD_SOLID_BREP ( 'Corps-Déplacer/Copier1[2]', #143 ) ;
#208 = CIRCLE ( 'NONE', #187, 5.999999999999999112 ) ;
#209 = ORGANIZATION ( 'UNSPECIFIED', 'UNSPECIFIED', '' ) ;
#210 = EDGE_LOOP ( 'NONE', ( #149 ) ) ;
#211 = PRODUCT_DEFINITION ( 'UNKNOWN', '', #105, #230 ) ;
#212 = APPROVAL_PERSON_ORGANIZATION ( #198, #49, #25 ) ;
#213 = FACE_OUTER_BOUND ( 'NONE', #205, .T. ) ;
#214 = FACE_OUTER_BOUND ( 'NONE', #42, .T. ) ;
#215 = DIRECTION ( 'NONE',  ( -3.491481338843133355E-15, -1.224646799147354045E-15, -1.000000000000000000 ) ) ;
#216 = FACE_BOUND ( 'NONE', #243, .T. ) ;
#217 = ADVANCED_FACE ( 'NONE', ( #18 ), #218, .T. ) ;
#218 = CONICAL_SURFACE ( 'NONE', #173, 4.324999999999998401, 1.221730476396032161 ) ;
#219 = DIRECTION ( 'NONE',  ( 0.0000000000000000000, 1.000000000000000000, 0.0000000000000000000 ) ) ;
#220 = CARTESIAN_POINT ( 'NONE',  ( 0.0000000000000000000, 0.0000000000000000000, 0.0000000000000000000 ) ) ;
#221 = CARTESIAN_POINT ( 'NONE',  ( 7.491877164818404502E-15, 5.400000000000000355, 2.145758902237398846 ) ) ;
#222 = AXIS2_PLACEMENT_3D ( 'NONE', #238, #17, #93 ) ;
#223 = PERSON_AND_ORGANIZATION ( #112, #209 ) ;
#224 = ADVANCED_BREP_SHAPE_REPRESENTATION ( '62891', ( #117, #207, #109 ), #20 ) ;
#225 =( NAMED_UNIT ( * ) PLANE_ANGLE_UNIT ( ) SI_UNIT ( $, .RADIAN. ) );
#226 = CARTESIAN_POINT ( 'NONE',  ( 3.561310965619995770E-13, 4.999999999999989342, 102.0000000000000000 ) ) ;
#227 = CIRCLE ( 'NONE', #6, 5.399999999999955058 ) ;
#228 = AXIS2_PLACEMENT_3D ( 'NONE', #90, #36, #189 ) ;
#229 = ORIENTED_EDGE ( 'NONE', *, *, #252, .F. ) ;
#230 = DESIGN_CONTEXT ( 'detailed design', #204, 'design' ) ;
#231 = COORDINATED_UNIVERSAL_TIME_OFFSET ( 1, 0, .AHEAD. ) ;
#232 = ADVANCED_FACE ( 'NONE', ( #41, #195 ), #55, .T. ) ;
#233 = LOCAL_TIME ( 11, 34, 19.00000000000000000, #185 ) ;
#234 = CC_DESIGN_DATE_AND_TIME_ASSIGNMENT ( #63, #28, ( #139 ) ) ;
#235 = ORIENTED_EDGE ( 'NONE', *, *, #84, .F. ) ;
#236 = CALENDAR_DATE ( 2021, 15, 10 ) ;
#237 = EDGE_LOOP ( 'NONE', ( #68 ) ) ;
#238 = CARTESIAN_POINT ( 'NONE',  ( -3.491481338843130200E-15, -1.224646799147353059E-15, -0.9999999999999991118 ) ) ;
#239 = CC_DESIGN_DATE_AND_TIME_ASSIGNMENT ( #131, #206, ( #211 ) ) ;
#240 = CIRCLE ( 'NONE', #228, 5.399999999999955058 ) ;
#241 = DIRECTION ( 'NONE',  ( -3.491481338843133355E-15, -1.224646799147354045E-15, -1.000000000000000000 ) ) ;
#242 = FACE_OUTER_BOUND ( 'NONE', #64, .T. ) ;
#243 = EDGE_LOOP ( 'NONE', ( #27 ) ) ;
#244 = FACE_OUTER_BOUND ( 'NONE', #164, .T. ) ;
#245 = CC_DESIGN_APPROVAL ( #49, ( #211 ) ) ;
#246 = VERTEX_POINT ( 'NONE', #202 ) ;
#247 = CIRCLE ( 'NONE', #129, 4.324999999999997513 ) ;
#248 = ADVANCED_FACE ( 'NONE', ( #101 ), #161, .F. ) ;
#249 = CYLINDRICAL_SURFACE ( 'NONE', #130, 5.999999999999999112 ) ;
#250 = APPROVAL_STATUS ( 'not_yet_approved' ) ;
#251 = SHAPE_DEFINITION_REPRESENTATION ( #59, #224 ) ;
#252 = EDGE_CURVE ( 'NONE', #97, #97, #182, .T. ) ;
#253 = PERSON_AND_ORGANIZATION ( #112, #209 ) ;
#254 = ADVANCED_FACE ( 'NONE', ( #146, #79 ), #249, .T. ) ;
#255 = EDGE_LOOP ( 'NONE', ( #132 ) ) ;
#256 = APPROVAL_DATE_TIME ( #148, #179 ) ;
#257 = EDGE_LOOP ( 'NONE', ( #169 ) ) ;
#258 = DIRECTION ( 'NONE',  ( 3.491481338843133355E-15, -1.224646799147353207E-16, 1.000000000000000000 ) ) ;
#259 = CARTESIAN_POINT ( 'NONE',  ( 5.496189589610521179E-15, 1.927803798789240500E-15, 1.574171263201317172 ) ) ;
#260 = CC_DESIGN_APPROVAL ( #35, ( #105 ) ) ;
#261 = FACE_OUTER_BOUND ( 'NONE', #184, .T. ) ;
#262 = DIRECTION ( 'NONE',  ( -4.279844320860559929E-30, 1.000000000000000000, -1.204669080539459451E-15 ) ) ;
#263 = FACE_BOUND ( 'NONE', #194, .T. ) ;
ENDSEC;
END-ISO-10303-21;
