ISO-10303-21;
HEADER;
FILE_DESCRIPTION (( 'STEP AP203' ),
    '1' );
FILE_NAME ('62890.step',
    '2021-10-15T09:34:19',
    ( '' ),
    ( '' ),
    'SwSTEP 2.0',
    'SolidWorks 2019',
    '' );
FILE_SCHEMA (( 'CONFIG_CONTROL_DESIGN' ));
ENDSEC;

DATA;
#1 = ADVANCED_BREP_SHAPE_REPRESENTATION ( '62890', ( #79, #164, #235 ), #23 ) ;
#2 = APPLICATION_PROTOCOL_DEFINITION ( 'international standard', 'config_control_design', 1994, #25 ) ;
#3 = COORDINATED_UNIVERSAL_TIME_OFFSET ( 1, 0, .AHEAD. ) ;
#4 = AXIS2_PLACEMENT_3D ( 'NONE', #189, #6, #234 ) ;
#5 = ORIENTED_EDGE ( 'NONE', *, *, #114, .T. ) ;
#6 = DIRECTION ( 'NONE',  ( -3.491481338843133355E-15, 1.224646799147353207E-16, -1.000000000000000000 ) ) ;
#7 = APPROVAL ( #204, 'UNSPECIFIED' ) ;
#8 = CIRCLE ( 'NONE', #98, 5.249999999999955591 ) ;
#9 = DIRECTION ( 'NONE',  ( -3.491481338843133355E-15, -1.224646799147354045E-15, -1.000000000000000000 ) ) ;
#10 = CARTESIAN_POINT ( 'NONE',  ( 3.561310965619995770E-13, -1.249139735130300089E-14, 102.0000000000000000 ) ) ;
#11 = EDGE_LOOP ( 'NONE', ( #232 ) ) ;
#12 = CARTESIAN_POINT ( 'NONE',  ( 2.314818543292204799E-13, -5.999999999999917399, 66.29903810567682854 ) ) ;
#13 = DIRECTION ( 'NONE',  ( -4.402125587170827209E-30, 1.000000000000000000, -1.239088197126291458E-15 ) ) ;
#14 = DIRECTION ( 'NONE',  ( 3.491481338843133355E-15, -1.224646799147353207E-16, 1.000000000000000000 ) ) ;
#15 = CIRCLE ( 'NONE', #66, 5.999999999999999112 ) ;
#16 = PRODUCT_DEFINITION_SHAPE ( 'NONE', 'NONE',  #74 ) ;
#17 = DIRECTION ( 'NONE',  ( -4.275831445896958607E-31, -1.000000000000000000, -1.224646799147353207E-16 ) ) ;
#18 = PERSON_AND_ORGANIZATION ( #228, #176 ) ;
#19 = PERSON_AND_ORGANIZATION_ROLE ( 'design_owner' ) ;
#20 = CIRCLE ( 'NONE', #162, 5.249999999999997335 ) ;
#21 = DATE_TIME_ROLE ( 'creation_date' ) ;
#22 = APPROVAL ( #163, 'UNSPECIFIED' ) ;
#23 =( GEOMETRIC_REPRESENTATION_CONTEXT ( 3 ) GLOBAL_UNCERTAINTY_ASSIGNED_CONTEXT ( ( #70 ) ) GLOBAL_UNIT_ASSIGNED_CONTEXT ( ( #45, #144, #140 ) ) REPRESENTATION_CONTEXT ( 'NONE', 'WORKASPACE' ) );
#24 = EDGE_LOOP ( 'NONE', ( #209 ) ) ;
#25 = APPLICATION_CONTEXT ( 'configuration controlled 3d designs of mechanical parts and assemblies' ) ;
#26 = FACE_OUTER_BOUND ( 'NONE', #188, .T. ) ;
#27 = CC_DESIGN_PERSON_AND_ORGANIZATION_ASSIGNMENT ( #186, #19, ( #101 ) ) ;
#28 = CIRCLE ( 'NONE', #102, 5.249999999999912959 ) ;
#29 = EDGE_LOOP ( 'NONE', ( #210 ) ) ;
#30 = EDGE_LOOP ( 'NONE', ( #192 ) ) ;
#31 = PRODUCT_RELATED_PRODUCT_CATEGORY ( 'detail', '', ( #101 ) ) ;
#32 = CARTESIAN_POINT ( 'NONE',  ( 7.286616415755732610E-15, 5.250000000000000000, 2.086969887162587689 ) ) ;
#33 = LOCAL_TIME ( 11, 34, 19.00000000000000000, #85 ) ;
#34 = CARTESIAN_POINT ( 'NONE',  ( 2.094888803305880013E-13, 4.499279347985560234E-32, 60.00000000000000000 ) ) ;
#35 = FACE_OUTER_BOUND ( 'NONE', #173, .T. ) ;
#36 = ADVANCED_FACE ( 'NONE', ( #128, #26 ), #46, .T. ) ;
#37 = DIRECTION ( 'NONE',  ( 0.0000000000000000000, 1.000000000000000000, 0.0000000000000000000 ) ) ;
#38 = AXIS2_PLACEMENT_3D ( 'NONE', #111, #9, #91 ) ;
#39 = CARTESIAN_POINT ( 'NONE',  ( 3.561310965619995770E-13, -1.249139735130300089E-14, 102.0000000000000000 ) ) ;
#40 = APPROVAL_DATE_TIME ( #225, #22 ) ;
#41 = ADVANCED_FACE ( 'NONE', ( #88 ), #108, .F. ) ;
#42 = CC_DESIGN_APPROVAL ( #138, ( #171 ) ) ;
#43 = APPROVAL_ROLE ( '' ) ;
#44 = CC_DESIGN_PERSON_AND_ORGANIZATION_ASSIGNMENT ( #206, #161, ( #117 ) ) ;
#45 =( LENGTH_UNIT ( ) NAMED_UNIT ( * ) SI_UNIT ( .MILLI., .METRE. ) );
#46 = CYLINDRICAL_SURFACE ( 'NONE', #134, 5.249999999999955591 ) ;
#47 = EDGE_LOOP ( 'NONE', ( #110 ) ) ;
#48 = SHAPE_DEFINITION_REPRESENTATION ( #16, #1 ) ;
#49 = EDGE_CURVE ( 'NONE', #80, #80, #146, .T. ) ;
#50 = DIRECTION ( 'NONE',  ( -4.255388067598499747E-30, 1.000000000000000000, -1.239088197126301319E-15 ) ) ;
#51 = DIRECTION ( 'NONE',  ( 0.0000000000000000000, 1.000000000000000000, 0.0000000000000000000 ) ) ;
#52 = AXIS2_PLACEMENT_3D ( 'NONE', #39, #259, #37 ) ;
#53 = ORIENTED_EDGE ( 'NONE', *, *, #84, .F. ) ;
#54 = CARTESIAN_POINT ( 'NONE',  ( -3.491481338843130200E-15, -1.224646799147353059E-15, -0.9999999999999991118 ) ) ;
#55 = DIRECTION ( 'NONE',  ( -3.491481338843133355E-15, 1.224646799147353207E-16, -1.000000000000000000 ) ) ;
#56 = LOCAL_TIME ( 11, 34, 19.00000000000000000, #83 ) ;
#57 = DIRECTION ( 'NONE',  ( -3.491481338843133355E-15, -1.224646799147354045E-15, -1.000000000000000000 ) ) ;
#58 = DIRECTION ( 'NONE',  ( 3.491481338843133355E-15, 1.224646799147354045E-15, 1.000000000000000000 ) ) ;
#59 = CARTESIAN_POINT ( 'NONE',  ( 0.0000000000000000000, 0.0000000000000000000, 0.0000000000000000000 ) ) ;
#60 = APPROVAL_PERSON_ORGANIZATION ( #18, #7, #43 ) ;
#61 = DATE_AND_TIME ( #247, #157 ) ;
#62 = EDGE_CURVE ( 'NONE', #116, #116, #28, .T. ) ;
#63 = DATE_AND_TIME ( #82, #33 ) ;
#64 = PERSON_AND_ORGANIZATION_ROLE ( 'creator' ) ;
#65 = CC_DESIGN_PERSON_AND_ORGANIZATION_ASSIGNMENT ( #103, #119, ( #117 ) ) ;
#66 = AXIS2_PLACEMENT_3D ( 'NONE', #89, #251, #148 ) ;
#67 = DIRECTION ( 'NONE',  ( 0.0000000000000000000, 0.0000000000000000000, 1.000000000000000000 ) ) ;
#68 = DIRECTION ( 'NONE',  ( -3.491481338843133355E-15, -1.224646799147354045E-15, -1.000000000000000000 ) ) ;
#69 = ORIENTED_EDGE ( 'NONE', *, *, #49, .T. ) ;
#70 = UNCERTAINTY_MEASURE_WITH_UNIT (LENGTH_MEASURE( 1.000000000000000082E-05 ), #45, 'distance_accuracy_value', 'NONE');
#71 = EDGE_LOOP ( 'NONE', ( #106 ) ) ;
#72 = ORIENTED_EDGE ( 'NONE', *, *, #257, .T. ) ;
#73 = EDGE_LOOP ( 'NONE', ( #150 ) ) ;
#74 = PRODUCT_DEFINITION ( 'UNKNOWN', '', #117, #149 ) ;
#75 = AXIS2_PLACEMENT_3D ( 'NONE', #59, #115, #197 ) ;
#76 = FACE_OUTER_BOUND ( 'NONE', #71, .T. ) ;
#77 = CARTESIAN_POINT ( 'NONE',  ( 2.345055658654973532E-13, 8.225348004139030225E-14, 67.16506350946110615 ) ) ;
#78 = VERTEX_POINT ( 'NONE', #118 ) ;
#79 = MANIFOLD_SOLID_BREP ( 'Corps-Déplacer/Copier1[1]', #222 ) ;
#80 = VERTEX_POINT ( 'NONE', #133 ) ;
#81 = CARTESIAN_POINT ( 'NONE',  ( 2.094888803305880013E-13, 7.347880794884124035E-14, 60.00000000000000000 ) ) ;
#82 = CALENDAR_DATE ( 2021, 15, 10 ) ;
#83 = COORDINATED_UNIVERSAL_TIME_OFFSET ( 1, 0, .AHEAD. ) ;
#84 = EDGE_CURVE ( 'NONE', #78, #78, #180, .T. ) ;
#85 = COORDINATED_UNIVERSAL_TIME_OFFSET ( 1, 0, .AHEAD. ) ;
#86 = APPROVAL_ROLE ( '' ) ;
#87 = AXIS2_PLACEMENT_3D ( 'NONE', #237, #58, #93 ) ;
#88 = FACE_OUTER_BOUND ( 'NONE', #73, .T. ) ;
#89 = CARTESIAN_POINT ( 'NONE',  ( 2.314818543292204295E-13, 8.119290480266557988E-14, 66.29903810567681433 ) ) ;
#90 = AXIS2_PLACEMENT_3D ( 'NONE', #77, #177, #178 ) ;
#91 = DIRECTION ( 'NONE',  ( -4.218703687705375141E-30, 1.000000000000000000, -1.239088197126291261E-15 ) ) ;
#92 = CARTESIAN_POINT ( 'NONE',  ( 2.269462870248037060E-13, 7.960204194457801038E-14, 65.00000000000000000 ) ) ;
#93 = DIRECTION ( 'NONE',  ( 4.402125587170827209E-30, -1.000000000000000000, 1.239088197126291458E-15 ) ) ;
#94 = CIRCLE ( 'NONE', #262, 5.249999999999955591 ) ;
#95 = CARTESIAN_POINT ( 'NONE',  ( 2.094888803305880013E-13, -5.249999999999881872, 60.00000000000000000 ) ) ;
#96 = DIRECTION ( 'NONE',  ( -3.491481338843133355E-15, 1.224646799147353207E-16, -1.000000000000000000 ) ) ;
#97 = DIRECTION ( 'NONE',  ( -4.275831445896958607E-31, -1.000000000000000000, -1.224646799147353207E-16 ) ) ;
#98 = AXIS2_PLACEMENT_3D ( 'NONE', #81, #96, #241 ) ;
#99 = VERTEX_POINT ( 'NONE', #12 ) ;
#100 = DIRECTION ( 'NONE',  ( 1.000000000000000000, 0.0000000000000000000, 0.0000000000000000000 ) ) ;
#101 = PRODUCT ( '62890', '62890', '', ( #245 ) ) ;
#102 = AXIS2_PLACEMENT_3D ( 'NONE', #92, #68, #51 ) ;
#103 = PERSON_AND_ORGANIZATION ( #228, #176 ) ;
#104 = COORDINATED_UNIVERSAL_TIME_OFFSET ( 1, 0, .AHEAD. ) ;
#105 = AXIS2_PLACEMENT_3D ( 'NONE', #34, #139, #17 ) ;
#106 = ORIENTED_EDGE ( 'NONE', *, *, #62, .T. ) ;
#107 = CARTESIAN_POINT ( 'NONE',  ( -3.491481338843130200E-15, -1.224646799147353059E-15, -0.9999999999999991118 ) ) ;
#108 = PLANE ( 'NONE',  #4 ) ;
#109 = CC_DESIGN_DATE_AND_TIME_ASSIGNMENT ( #125, #21, ( #74 ) ) ;
#110 = ORIENTED_EDGE ( 'NONE', *, *, #114, .F. ) ;
#111 = CARTESIAN_POINT ( 'NONE',  ( 5.337340179506173109E-15, 1.872086925991863784E-15, 1.528674983918042685 ) ) ;
#112 = CARTESIAN_POINT ( 'NONE',  ( 2.269462870248037060E-13, 5.249999999999992895, 65.00000000000000000 ) ) ;
#113 = CYLINDRICAL_SURFACE ( 'NONE', #75, 5.999999999999999112 ) ;
#114 = EDGE_CURVE ( 'NONE', #99, #99, #15, .T. ) ;
#115 = DIRECTION ( 'NONE',  ( -3.491481338843133355E-15, 1.224646799147353207E-16, -1.000000000000000000 ) ) ;
#116 = VERTEX_POINT ( 'NONE', #112 ) ;
#117 = PRODUCT_DEFINITION_FORMATION_WITH_SPECIFIED_SOURCE ( 'ANY', '', #101, .NOT_KNOWN. ) ;
#118 = CARTESIAN_POINT ( 'NONE',  ( 3.526396152231564058E-13, 5.999999999999989342, 100.9999999999999716 ) ) ;
#119 = PERSON_AND_ORGANIZATION_ROLE ( 'design_supplier' ) ;
#120 = PERSON_AND_ORGANIZATION ( #228, #176 ) ;
#121 = APPROVAL_PERSON_ORGANIZATION ( #227, #138, #207 ) ;
#122 = CALENDAR_DATE ( 2021, 15, 10 ) ;
#123 = EDGE_CURVE ( 'NONE', #181, #181, #166, .T. ) ;
#124 = CALENDAR_DATE ( 2021, 15, 10 ) ;
#125 = DATE_AND_TIME ( #122, #200 ) ;
#126 = APPROVAL_DATE_TIME ( #61, #138 ) ;
#127 = EDGE_LOOP ( 'NONE', ( #69 ) ) ;
#128 = FACE_OUTER_BOUND ( 'NONE', #11, .T. ) ;
#129 = DIRECTION ( 'NONE',  ( -3.491481338843133355E-15, 1.224646799147353207E-16, -1.000000000000000000 ) ) ;
#130 = ADVANCED_FACE ( 'NONE', ( #151 ), #205, .T. ) ;
#131 = CLOSED_SHELL ( 'NONE', ( #202, #130, #219, #36 ) ) ;
#132 = CARTESIAN_POINT ( 'NONE',  ( 2.094888803305880013E-13, -5.249999999999881872, 60.00000000000000000 ) ) ;
#133 = CARTESIAN_POINT ( 'NONE',  ( 3.561310965619995770E-13, 4.999999999999989342, 102.0000000000000000 ) ) ;
#134 = AXIS2_PLACEMENT_3D ( 'NONE', #107, #229, #50 ) ;
#135 = FACE_BOUND ( 'NONE', #213, .T. ) ;
#136 = APPLICATION_CONTEXT ( 'configuration controlled 3d designs of mechanical parts and assemblies' ) ;
#137 = DIRECTION ( 'NONE',  ( 4.218703687705374441E-30, -1.000000000000000000, 1.239088197126291063E-15 ) ) ;
#138 = APPROVAL ( #243, 'UNSPECIFIED' ) ;
#139 = DIRECTION ( 'NONE',  ( 3.491481338843133355E-15, -1.224646799147353207E-16, 1.000000000000000000 ) ) ;
#140 =( NAMED_UNIT ( * ) SI_UNIT ( $, .STERADIAN. ) SOLID_ANGLE_UNIT ( ) );
#141 = COORDINATED_UNIVERSAL_TIME_OFFSET ( 1, 0, .AHEAD. ) ;
#142 = AXIS2_PLACEMENT_3D ( 'NONE', #242, #14, #97 ) ;
#143 = DATE_AND_TIME ( #165, #56 ) ;
#144 =( NAMED_UNIT ( * ) PLANE_ANGLE_UNIT ( ) SI_UNIT ( $, .RADIAN. ) );
#145 = CARTESIAN_POINT ( 'NONE',  ( 5.337340179506173109E-15, 1.872086925991863784E-15, 1.528674983918042685 ) ) ;
#146 = CIRCLE ( 'NONE', #244, 5.000000000000001776 ) ;
#147 = ORIENTED_EDGE ( 'NONE', *, *, #154, .F. ) ;
#148 = DIRECTION ( 'NONE',  ( 8.217301096052207241E-30, -1.000000000000000000, 2.312964634635743056E-15 ) ) ;
#149 = DESIGN_CONTEXT ( 'detailed design', #136, 'design' ) ;
#150 = ORIENTED_EDGE ( 'NONE', *, *, #49, .F. ) ;
#151 = FACE_OUTER_BOUND ( 'NONE', #29, .T. ) ;
#152 = AXIS2_PLACEMENT_3D ( 'NONE', #54, #57, #159 ) ;
#153 = FACE_BOUND ( 'NONE', #211, .T. ) ;
#154 = EDGE_CURVE ( 'NONE', #260, #260, #8, .T. ) ;
#155 = FACE_OUTER_BOUND ( 'NONE', #236, .T. ) ;
#156 = CARTESIAN_POINT ( 'NONE',  ( 5.337340179506155754E-15, 4.200000000000000178, 1.528674983918037578 ) ) ;
#157 = LOCAL_TIME ( 11, 34, 19.00000000000000000, #3 ) ;
#158 = EDGE_CURVE ( 'NONE', #215, #215, #20, .T. ) ;
#159 = DIRECTION ( 'NONE',  ( -4.255388067598499747E-30, 1.000000000000000000, -1.239088197126301319E-15 ) ) ;
#160 = DIRECTION ( 'NONE',  ( 0.0000000000000000000, -1.000000000000000000, 0.0000000000000000000 ) ) ;
#161 = PERSON_AND_ORGANIZATION_ROLE ( 'creator' ) ;
#162 = AXIS2_PLACEMENT_3D ( 'NONE', #179, #216, #13 ) ;
#163 = APPROVAL_STATUS ( 'not_yet_approved' ) ;
#164 = MANIFOLD_SOLID_BREP ( 'Corps-Déplacer/Copier1[2]', #131 ) ;
#165 = CALENDAR_DATE ( 2021, 15, 10 ) ;
#166 = CIRCLE ( 'NONE', #38, 4.199999999999998401 ) ;
#167 = DATE_TIME_ROLE ( 'classification_date' ) ;
#168 = ADVANCED_FACE ( 'NONE', ( #135, #201 ), #187, .T. ) ;
#169 = ORIENTED_EDGE ( 'NONE', *, *, #257, .F. ) ;
#170 = DIRECTION ( 'NONE',  ( 0.0000000000000000000, 1.000000000000000000, 0.0000000000000000000 ) ) ;
#171 = SECURITY_CLASSIFICATION ( '', '', #263 ) ;
#172 = EDGE_LOOP ( 'NONE', ( #53 ) ) ;
#173 = EDGE_LOOP ( 'NONE', ( #72 ) ) ;
#174 = DIRECTION ( 'NONE',  ( -3.491481338843133355E-15, 1.224646799147353207E-16, -1.000000000000000000 ) ) ;
#175 = PLANE ( 'NONE',  #105 ) ;
#176 = ORGANIZATION ( 'UNSPECIFIED', 'UNSPECIFIED', '' ) ;
#177 = DIRECTION ( 'NONE',  ( 3.491481338843133355E-15, 1.224646799147354045E-15, 1.000000000000000000 ) ) ;
#178 = DIRECTION ( 'NONE',  ( 7.585201011740604304E-30, -1.000000000000000000, 2.135044278125330925E-15 ) ) ;
#179 = CARTESIAN_POINT ( 'NONE',  ( 7.286616415755756276E-15, 2.555800992230585517E-15, 2.086969887162593906 ) ) ;
#180 = CIRCLE ( 'NONE', #246, 6.000000000000001776 ) ;
#181 = VERTEX_POINT ( 'NONE', #156 ) ;
#182 = PERSON_AND_ORGANIZATION_ROLE ( 'classification_officer' ) ;
#183 = APPROVAL_PERSON_ORGANIZATION ( #120, #22, #86 ) ;
#184 = APPLICATION_PROTOCOL_DEFINITION ( 'international standard', 'config_control_design', 1994, #136 ) ;
#185 = CC_DESIGN_PERSON_AND_ORGANIZATION_ASSIGNMENT ( #261, #182, ( #171 ) ) ;
#186 = PERSON_AND_ORGANIZATION ( #228, #176 ) ;
#187 = CONICAL_SURFACE ( 'NONE', #90, 6.499999999999909406, 0.5235987755982957070 ) ;
#188 = EDGE_LOOP ( 'NONE', ( #233 ) ) ;
#189 = CARTESIAN_POINT ( 'NONE',  ( 3.561310965619995770E-13, 3.749399456654627598E-32, 102.0000000000000000 ) ) ;
#190 = ADVANCED_FACE ( 'NONE', ( #155, #256 ), #113, .T. ) ;
#191 = CC_DESIGN_SECURITY_CLASSIFICATION ( #171, ( #117 ) ) ;
#192 = ORIENTED_EDGE ( 'NONE', *, *, #158, .T. ) ;
#193 = CC_DESIGN_DATE_AND_TIME_ASSIGNMENT ( #143, #167, ( #171 ) ) ;
#194 = ORIENTED_EDGE ( 'NONE', *, *, #123, .F. ) ;
#195 = VERTEX_POINT ( 'NONE', #95 ) ;
#196 = CARTESIAN_POINT ( 'NONE',  ( 2.094888803305880013E-13, 7.347880794884124035E-14, 60.00000000000000000 ) ) ;
#197 = DIRECTION ( 'NONE',  ( 4.275831445896959482E-31, 1.000000000000000000, 1.224646799147353207E-16 ) ) ;
#198 = ADVANCED_FACE ( 'NONE', ( #76, #238 ), #255, .T. ) ;
#199 = DIRECTION ( 'NONE',  ( 3.491481338843133355E-15, 1.224646799147354045E-15, 1.000000000000000000 ) ) ;
#200 = LOCAL_TIME ( 11, 34, 19.00000000000000000, #141 ) ;
#201 = FACE_OUTER_BOUND ( 'NONE', #47, .T. ) ;
#202 = ADVANCED_FACE ( 'NONE', ( #258 ), #240, .T. ) ;
#203 = CARTESIAN_POINT ( 'NONE',  ( 0.0000000000000000000, 0.0000000000000000000, 0.0000000000000000000 ) ) ;
#204 = APPROVAL_STATUS ( 'not_yet_approved' ) ;
#205 = CONICAL_SURFACE ( 'NONE', #212, 4.199999999999999289, 1.221730476396032161 ) ;
#206 = PERSON_AND_ORGANIZATION ( #228, #176 ) ;
#207 = APPROVAL_ROLE ( '' ) ;
#208 = CC_DESIGN_APPROVAL ( #7, ( #74 ) ) ;
#209 = ORIENTED_EDGE ( 'NONE', *, *, #84, .T. ) ;
#210 = ORIENTED_EDGE ( 'NONE', *, *, #123, .T. ) ;
#211 = EDGE_LOOP ( 'NONE', ( #194 ) ) ;
#212 = AXIS2_PLACEMENT_3D ( 'NONE', #145, #199, #137 ) ;
#213 = EDGE_LOOP ( 'NONE', ( #249 ) ) ;
#214 = CARTESIAN_POINT ( 'NONE',  ( 3.526396152231564058E-13, -1.236893267138826416E-14, 100.9999999999999716 ) ) ;
#215 = VERTEX_POINT ( 'NONE', #32 ) ;
#216 = DIRECTION ( 'NONE',  ( -3.491481338843133355E-15, -1.224646799147354045E-15, -1.000000000000000000 ) ) ;
#217 = LOCAL_TIME ( 11, 34, 19.00000000000000000, #104 ) ;
#218 = FACE_OUTER_BOUND ( 'NONE', #30, .T. ) ;
#219 = ADVANCED_FACE ( 'NONE', ( #153, #218 ), #239, .T. ) ;
#220 = FACE_OUTER_BOUND ( 'NONE', #172, .T. ) ;
#221 = FACE_BOUND ( 'NONE', #127, .T. ) ;
#222 = CLOSED_SHELL ( 'NONE', ( #190, #230, #41, #198, #168, #226 ) ) ;
#223 = APPROVAL_DATE_TIME ( #63, #7 ) ;
#224 = PERSON_AND_ORGANIZATION ( #228, #176 ) ;
#225 = DATE_AND_TIME ( #124, #217 ) ;
#226 = ADVANCED_FACE ( 'NONE', ( #35 ), #175, .F. ) ;
#227 = PERSON_AND_ORGANIZATION ( #228, #176 ) ;
#228 = PERSON ( 'UNSPECIFIED', 'UNSPECIFIED', 'UNSPECIFIED', ('UNSPECIFIED'), ('UNSPECIFIED'), ('UNSPECIFIED') ) ;
#229 = DIRECTION ( 'NONE',  ( -3.491481338843133355E-15, -1.224646799147354045E-15, -1.000000000000000000 ) ) ;
#230 = ADVANCED_FACE ( 'NONE', ( #220, #221 ), #231, .T. ) ;
#231 = CONICAL_SURFACE ( 'NONE', #52, 5.000000000000001776, 0.7853981633974410625 ) ;
#232 = ORIENTED_EDGE ( 'NONE', *, *, #154, .T. ) ;
#233 = ORIENTED_EDGE ( 'NONE', *, *, #158, .F. ) ;
#234 = DIRECTION ( 'NONE',  ( 4.275831445896958607E-31, 1.000000000000000000, 1.224646799147353207E-16 ) ) ;
#235 = AXIS2_PLACEMENT_3D ( 'NONE', #203, #67, #100 ) ;
#236 = EDGE_LOOP ( 'NONE', ( #5 ) ) ;
#237 = CARTESIAN_POINT ( 'NONE',  ( 7.286616415755756276E-15, 2.555800992230585517E-15, 2.086969887162593906 ) ) ;
#238 = FACE_OUTER_BOUND ( 'NONE', #248, .T. ) ;
#239 = CONICAL_SURFACE ( 'NONE', #87, 5.249999999999997335, 1.082104136236484937 ) ;
#240 = PLANE ( 'NONE',  #142 ) ;
#241 = DIRECTION ( 'NONE',  ( 0.0000000000000000000, -1.000000000000000000, 0.0000000000000000000 ) ) ;
#242 = CARTESIAN_POINT ( 'NONE',  ( 2.094888803305880013E-13, 4.499279347985560234E-32, 60.00000000000000000 ) ) ;
#243 = APPROVAL_STATUS ( 'not_yet_approved' ) ;
#244 = AXIS2_PLACEMENT_3D ( 'NONE', #10, #129, #170 ) ;
#245 = MECHANICAL_CONTEXT ( 'NONE', #25, 'mechanical' ) ;
#246 = AXIS2_PLACEMENT_3D ( 'NONE', #214, #174, #254 ) ;
#247 = CALENDAR_DATE ( 2021, 15, 10 ) ;
#248 = EDGE_LOOP ( 'NONE', ( #169 ) ) ;
#249 = ORIENTED_EDGE ( 'NONE', *, *, #62, .F. ) ;
#250 = CC_DESIGN_APPROVAL ( #22, ( #117 ) ) ;
#251 = DIRECTION ( 'NONE',  ( 3.491481338843133355E-15, 1.224646799147354045E-15, 1.000000000000000000 ) ) ;
#252 = CC_DESIGN_PERSON_AND_ORGANIZATION_ASSIGNMENT ( #224, #64, ( #74 ) ) ;
#253 = EDGE_LOOP ( 'NONE', ( #147 ) ) ;
#254 = DIRECTION ( 'NONE',  ( 0.0000000000000000000, 1.000000000000000000, 0.0000000000000000000 ) ) ;
#255 = CYLINDRICAL_SURFACE ( 'NONE', #152, 5.249999999999955591 ) ;
#256 = FACE_OUTER_BOUND ( 'NONE', #24, .T. ) ;
#257 = EDGE_CURVE ( 'NONE', #195, #195, #94, .T. ) ;
#258 = FACE_OUTER_BOUND ( 'NONE', #253, .T. ) ;
#259 = DIRECTION ( 'NONE',  ( -3.491481338843133355E-15, 1.224646799147353207E-16, -1.000000000000000000 ) ) ;
#260 = VERTEX_POINT ( 'NONE', #132 ) ;
#261 = PERSON_AND_ORGANIZATION ( #228, #176 ) ;
#262 = AXIS2_PLACEMENT_3D ( 'NONE', #196, #55, #160 ) ;
#263 = SECURITY_CLASSIFICATION_LEVEL ( 'unclassified' ) ;
ENDSEC;
END-ISO-10303-21;
