ISO-10303-21;
HEADER;
FILE_DESCRIPTION (( 'STEP AP203' ),
    '1' );
FILE_NAME ('62889.step',
    '2021-10-15T09:34:18',
    ( '' ),
    ( '' ),
    'SwSTEP 2.0',
    'SolidWorks 2019',
    '' );
FILE_SCHEMA (( 'CONFIG_CONTROL_DESIGN' ));
ENDSEC;

DATA;
#1 = SHAPE_DEFINITION_REPRESENTATION ( #195, #158 ) ;
#2 = CARTESIAN_POINT ( 'NONE',  ( 2.094888803305880013E-13, 4.499279347985560234E-32, 60.00000000000000000 ) ) ;
#3 = APPROVAL ( #45, 'UNSPECIFIED' ) ;
#4 = PERSON_AND_ORGANIZATION_ROLE ( 'classification_officer' ) ;
#5 = VERTEX_POINT ( 'NONE', #248 ) ;
#6 = DIRECTION ( 'NONE',  ( 0.0000000000000000000, 0.0000000000000000000, 1.000000000000000000 ) ) ;
#7 = CARTESIAN_POINT ( 'NONE',  ( 3.561310965619995770E-13, -1.249139735130300089E-14, 102.0000000000000000 ) ) ;
#8 = ORIENTED_EDGE ( 'NONE', *, *, #215, .F. ) ;
#9 = EDGE_CURVE ( 'NONE', #164, #164, #210, .T. ) ;
#10 = DIRECTION ( 'NONE',  ( 1.000000000000000000, 0.0000000000000000000, 0.0000000000000000000 ) ) ;
#11 = AXIS2_PLACEMENT_3D ( 'NONE', #2, #75, #246 ) ;
#12 = CARTESIAN_POINT ( 'NONE',  ( 2.269462870248037060E-13, 7.960204194457801038E-14, 65.00000000000000000 ) ) ;
#13 = DIRECTION ( 'NONE',  ( -3.491481338843133355E-15, 1.224646799147353207E-16, -1.000000000000000000 ) ) ;
#14 = ADVANCED_FACE ( 'NONE', ( #239, #178 ), #124, .T. ) ;
#15 = FACE_OUTER_BOUND ( 'NONE', #177, .T. ) ;
#16 = DIRECTION ( 'NONE',  ( 0.0000000000000000000, -1.000000000000000000, 0.0000000000000000000 ) ) ;
#17 = ADVANCED_FACE ( 'NONE', ( #15 ), #83, .T. ) ;
#18 = CARTESIAN_POINT ( 'NONE',  ( 3.561310965619995770E-13, -1.249139735130300089E-14, 102.0000000000000000 ) ) ;
#19 = COORDINATED_UNIVERSAL_TIME_OFFSET ( 1, 0, .AHEAD. ) ;
#20 = CARTESIAN_POINT ( 'NONE',  ( 2.094888803305880013E-13, -5.099999999999880629, 60.00000000000000000 ) ) ;
#21 = FACE_BOUND ( 'NONE', #68, .T. ) ;
#22 = AXIS2_PLACEMENT_3D ( 'NONE', #135, #50, #16 ) ;
#23 = FACE_BOUND ( 'NONE', #192, .T. ) ;
#24 = AXIS2_PLACEMENT_3D ( 'NONE', #59, #96, #115 ) ;
#25 = CC_DESIGN_APPROVAL ( #146, ( #47 ) ) ;
#26 = ORIENTED_EDGE ( 'NONE', *, *, #64, .F. ) ;
#27 = APPROVAL_ROLE ( '' ) ;
#28 = ORIENTED_EDGE ( 'NONE', *, *, #166, .F. ) ;
#29 = PERSON_AND_ORGANIZATION ( #48, #67 ) ;
#30 = AXIS2_PLACEMENT_3D ( 'NONE', #54, #156, #200 ) ;
#31 = DIRECTION ( 'NONE',  ( -3.491481338843133355E-15, 1.224646799147353207E-16, -1.000000000000000000 ) ) ;
#32 = CARTESIAN_POINT ( 'NONE',  ( 3.561310965619995770E-13, 3.749399456654627598E-32, 102.0000000000000000 ) ) ;
#33 = DIRECTION ( 'NONE',  ( 0.0000000000000000000, 1.000000000000000000, 0.0000000000000000000 ) ) ;
#34 = DIRECTION ( 'NONE',  ( 3.491481338843133355E-15, 1.224646799147354045E-15, 1.000000000000000000 ) ) ;
#35 = AXIS2_PLACEMENT_3D ( 'NONE', #36, #174, #261 ) ;
#36 = CARTESIAN_POINT ( 'NONE',  ( 7.081355666693077284E-15, 2.483805213094189458E-15, 2.028180872087780529 ) ) ;
#37 = VERTEX_POINT ( 'NONE', #102 ) ;
#38 = ORIENTED_EDGE ( 'NONE', *, *, #88, .F. ) ;
#39 =( NAMED_UNIT ( * ) PLANE_ANGLE_UNIT ( ) SI_UNIT ( $, .RADIAN. ) );
#40 = AXIS2_PLACEMENT_3D ( 'NONE', #118, #259, #134 ) ;
#41 = DIRECTION ( 'NONE',  ( 4.229493211203344146E-30, -1.000000000000000000, 1.190496503121338952E-15 ) ) ;
#42 = CC_DESIGN_PERSON_AND_ORGANIZATION_ASSIGNMENT ( #167, #211, ( #190 ) ) ;
#43 =( GEOMETRIC_REPRESENTATION_CONTEXT ( 3 ) GLOBAL_UNCERTAINTY_ASSIGNED_CONTEXT ( ( #234 ) ) GLOBAL_UNIT_ASSIGNED_CONTEXT ( ( #103, #39, #100 ) ) REPRESENTATION_CONTEXT ( 'NONE', 'WORKASPACE' ) );
#44 = ORIENTED_EDGE ( 'NONE', *, *, #160, .F. ) ;
#45 = APPROVAL_STATUS ( 'not_yet_approved' ) ;
#46 = AXIS2_PLACEMENT_3D ( 'NONE', #247, #161, #136 ) ;
#47 = SECURITY_CLASSIFICATION ( '', '', #183 ) ;
#48 = PERSON ( 'UNSPECIFIED', 'UNSPECIFIED', 'UNSPECIFIED', ('UNSPECIFIED'), ('UNSPECIFIED'), ('UNSPECIFIED') ) ;
#49 = DATE_AND_TIME ( #233, #130 ) ;
#50 = DIRECTION ( 'NONE',  ( -3.491481338843133355E-15, 1.224646799147353207E-16, -1.000000000000000000 ) ) ;
#51 = AXIS2_PLACEMENT_3D ( 'NONE', #18, #31, #69 ) ;
#52 = LOCAL_TIME ( 11, 34, 18.00000000000000000, #72 ) ;
#53 = DIRECTION ( 'NONE',  ( -4.229493211203379179E-30, 1.000000000000000000, -1.233014235375682699E-15 ) ) ;
#54 = CARTESIAN_POINT ( 'NONE',  ( 5.178490769401821883E-15, 1.816370053194487069E-15, 1.483178704634767531 ) ) ;
#55 = CARTESIAN_POINT ( 'NONE',  ( 2.323889677901036934E-13, -5.999999999999917399, 66.55884572681215161 ) ) ;
#56 = PLANE ( 'NONE',  #237 ) ;
#57 = CALENDAR_DATE ( 2021, 15, 10 ) ;
#58 = DIRECTION ( 'NONE',  ( 3.491481338843133355E-15, 1.224646799147354045E-15, 1.000000000000000000 ) ) ;
#59 = CARTESIAN_POINT ( 'NONE',  ( 2.323889677901036429E-13, 8.151107737428304581E-14, 66.55884572681213740 ) ) ;
#60 = CARTESIAN_POINT ( 'NONE',  ( 2.354126793263805666E-13, 8.257165261300776818E-14, 67.42487113059642923 ) ) ;
#61 = VERTEX_POINT ( 'NONE', #145 ) ;
#62 = EDGE_CURVE ( 'NONE', #5, #5, #235, .T. ) ;
#63 = ORIENTED_EDGE ( 'NONE', *, *, #64, .T. ) ;
#64 = EDGE_CURVE ( 'NONE', #180, #180, #240, .T. ) ;
#65 = AXIS2_PLACEMENT_3D ( 'NONE', #7, #97, #207 ) ;
#66 = APPROVAL_ROLE ( '' ) ;
#67 = ORGANIZATION ( 'UNSPECIFIED', 'UNSPECIFIED', '' ) ;
#68 = EDGE_LOOP ( 'NONE', ( #44 ) ) ;
#69 = DIRECTION ( 'NONE',  ( 0.0000000000000000000, 1.000000000000000000, 0.0000000000000000000 ) ) ;
#70 = DIRECTION ( 'NONE',  ( -4.275831445896958607E-31, -1.000000000000000000, -1.224646799147353207E-16 ) ) ;
#71 = COORDINATED_UNIVERSAL_TIME_OFFSET ( 1, 0, .AHEAD. ) ;
#72 = COORDINATED_UNIVERSAL_TIME_OFFSET ( 1, 0, .AHEAD. ) ;
#73 = DIRECTION ( 'NONE',  ( 3.491481338843133355E-15, -1.224646799147353207E-16, 1.000000000000000000 ) ) ;
#74 = DIRECTION ( 'NONE',  ( 0.0000000000000000000, -1.000000000000000000, 0.0000000000000000000 ) ) ;
#75 = DIRECTION ( 'NONE',  ( 3.491481338843133355E-15, -1.224646799147353207E-16, 1.000000000000000000 ) ) ;
#76 = PERSON_AND_ORGANIZATION ( #48, #67 ) ;
#77 = APPROVAL ( #105, 'UNSPECIFIED' ) ;
#78 = PERSON_AND_ORGANIZATION ( #48, #67 ) ;
#79 = DIRECTION ( 'NONE',  ( -3.491481338843133355E-15, 1.224646799147353207E-16, -1.000000000000000000 ) ) ;
#80 = ORIENTED_EDGE ( 'NONE', *, *, #88, .T. ) ;
#81 = APPLICATION_PROTOCOL_DEFINITION ( 'international standard', 'config_control_design', 1994, #147 ) ;
#82 = COORDINATED_UNIVERSAL_TIME_OFFSET ( 1, 0, .AHEAD. ) ;
#83 = CONICAL_SURFACE ( 'NONE', #30, 4.074999999999998401, 1.221730476396032161 ) ;
#84 = CC_DESIGN_SECURITY_CLASSIFICATION ( #47, ( #142 ) ) ;
#85 = ADVANCED_FACE ( 'NONE', ( #143, #131 ), #241, .T. ) ;
#86 = DIRECTION ( 'NONE',  ( -3.491481338843133355E-15, -1.224646799147354045E-15, -1.000000000000000000 ) ) ;
#87 = EDGE_LOOP ( 'NONE', ( #216 ) ) ;
#88 = EDGE_CURVE ( 'NONE', #188, #188, #94, .T. ) ;
#89 = CYLINDRICAL_SURFACE ( 'NONE', #40, 5.999999999999999112 ) ;
#90 = DIRECTION ( 'NONE',  ( -3.491481338843133355E-15, -1.224646799147354045E-15, -1.000000000000000000 ) ) ;
#91 = CARTESIAN_POINT ( 'NONE',  ( -3.491481338843130200E-15, -1.224646799147353059E-15, -0.9999999999999991118 ) ) ;
#92 = APPROVAL_ROLE ( '' ) ;
#93 = ADVANCED_FACE ( 'NONE', ( #181, #204 ), #89, .T. ) ;
#94 = CIRCLE ( 'NONE', #151, 6.000000000000001776 ) ;
#95 = AXIS2_PLACEMENT_3D ( 'NONE', #91, #243, #53 ) ;
#96 = DIRECTION ( 'NONE',  ( 3.491481338843133355E-15, 1.224646799147354045E-15, 1.000000000000000000 ) ) ;
#97 = DIRECTION ( 'NONE',  ( -3.491481338843133355E-15, 1.224646799147353207E-16, -1.000000000000000000 ) ) ;
#98 = FACE_OUTER_BOUND ( 'NONE', #194, .T. ) ;
#99 = APPROVAL_DATE_TIME ( #170, #3 ) ;
#100 =( NAMED_UNIT ( * ) SI_UNIT ( $, .STERADIAN. ) SOLID_ANGLE_UNIT ( ) );
#101 = DATE_AND_TIME ( #179, #252 ) ;
#102 = CARTESIAN_POINT ( 'NONE',  ( 2.269462870248037060E-13, 5.099999999999991651, 65.00000000000000000 ) ) ;
#103 =( LENGTH_UNIT ( ) NAMED_UNIT ( * ) SI_UNIT ( .MILLI., .METRE. ) );
#104 = LOCAL_TIME ( 11, 34, 18.00000000000000000, #82 ) ;
#105 = APPROVAL_STATUS ( 'not_yet_approved' ) ;
#106 = ORIENTED_EDGE ( 'NONE', *, *, #215, .T. ) ;
#107 = ADVANCED_FACE ( 'NONE', ( #98, #238 ), #137, .T. ) ;
#108 = PERSON_AND_ORGANIZATION ( #48, #67 ) ;
#109 = ORIENTED_EDGE ( 'NONE', *, *, #166, .T. ) ;
#110 = EDGE_LOOP ( 'NONE', ( #63 ) ) ;
#111 = ADVANCED_FACE ( 'NONE', ( #263 ), #56, .F. ) ;
#112 = DATE_AND_TIME ( #119, #52 ) ;
#113 = DATE_TIME_ROLE ( 'creation_date' ) ;
#114 = AXIS2_PLACEMENT_3D ( 'NONE', #199, #90, #201 ) ;
#115 = DIRECTION ( 'NONE',  ( 8.217301096052207241E-30, -1.000000000000000000, 2.312964634635743056E-15 ) ) ;
#116 = MECHANICAL_CONTEXT ( 'NONE', #171, 'mechanical' ) ;
#117 = DIRECTION ( 'NONE',  ( 4.275831445896958607E-31, 1.000000000000000000, 1.224646799147353207E-16 ) ) ;
#118 = CARTESIAN_POINT ( 'NONE',  ( 0.0000000000000000000, 0.0000000000000000000, 0.0000000000000000000 ) ) ;
#119 = CALENDAR_DATE ( 2021, 15, 10 ) ;
#120 = PLANE ( 'NONE',  #11 ) ;
#121 = CARTESIAN_POINT ( 'NONE',  ( 3.526396152231564058E-13, 5.999999999999989342, 100.9999999999999716 ) ) ;
#122 = CC_DESIGN_DATE_AND_TIME_ASSIGNMENT ( #112, #113, ( #175 ) ) ;
#123 = CIRCLE ( 'NONE', #262, 5.099999999999954348 ) ;
#124 = CONICAL_SURFACE ( 'NONE', #51, 5.000000000000001776, 0.7853981633974410625 ) ;
#125 = MANIFOLD_SOLID_BREP ( 'Corps-Déplacer/Copier1[1]', #185 ) ;
#126 = ORIENTED_EDGE ( 'NONE', *, *, #9, .T. ) ;
#127 = APPLICATION_PROTOCOL_DEFINITION ( 'international standard', 'config_control_design', 1994, #171 ) ;
#128 = EDGE_LOOP ( 'NONE', ( #28 ) ) ;
#129 = AXIS2_PLACEMENT_3D ( 'NONE', #228, #34, #41 ) ;
#130 = LOCAL_TIME ( 11, 34, 18.00000000000000000, #189 ) ;
#131 = FACE_OUTER_BOUND ( 'NONE', #249, .T. ) ;
#132 = APPROVAL_PERSON_ORGANIZATION ( #108, #77, #27 ) ;
#133 = CC_DESIGN_DATE_AND_TIME_ASSIGNMENT ( #244, #144, ( #47 ) ) ;
#134 = DIRECTION ( 'NONE',  ( 4.275831445896959482E-31, 1.000000000000000000, 1.224646799147353207E-16 ) ) ;
#135 = CARTESIAN_POINT ( 'NONE',  ( 2.094888803305880013E-13, 7.347880794884124035E-14, 60.00000000000000000 ) ) ;
#136 = DIRECTION ( 'NONE',  ( -4.348111776285295634E-30, 1.000000000000000000, -1.223884660965232680E-15 ) ) ;
#137 = CYLINDRICAL_SURFACE ( 'NONE', #114, 5.099999999999954348 ) ;
#138 = ADVANCED_FACE ( 'NONE', ( #159 ), #154, .F. ) ;
#139 = PERSON_AND_ORGANIZATION ( #48, #67 ) ;
#140 = FACE_OUTER_BOUND ( 'NONE', #150, .T. ) ;
#141 = CIRCLE ( 'NONE', #155, 5.099999999999911715 ) ;
#142 = PRODUCT_DEFINITION_FORMATION_WITH_SPECIFIED_SOURCE ( 'ANY', '', #190, .NOT_KNOWN. ) ;
#143 = FACE_OUTER_BOUND ( 'NONE', #229, .T. ) ;
#144 = DATE_TIME_ROLE ( 'classification_date' ) ;
#145 = CARTESIAN_POINT ( 'NONE',  ( 3.561310965619995770E-13, 4.999999999999989342, 102.0000000000000000 ) ) ;
#146 = APPROVAL ( #163, 'UNSPECIFIED' ) ;
#147 = APPLICATION_CONTEXT ( 'configuration controlled 3d designs of mechanical parts and assemblies' ) ;
#148 = DESIGN_CONTEXT ( 'detailed design', #147, 'design' ) ;
#149 = AXIS2_PLACEMENT_3D ( 'NONE', #184, #6, #10 ) ;
#150 = EDGE_LOOP ( 'NONE', ( #126 ) ) ;
#151 = AXIS2_PLACEMENT_3D ( 'NONE', #221, #13, #33 ) ;
#152 = EDGE_LOOP ( 'NONE', ( #80 ) ) ;
#153 = ADVANCED_FACE ( 'NONE', ( #197 ), #120, .T. ) ;
#154 = PLANE ( 'NONE',  #251 ) ;
#155 = AXIS2_PLACEMENT_3D ( 'NONE', #12, #86, #187 ) ;
#156 = DIRECTION ( 'NONE',  ( 3.491481338843133355E-15, 1.224646799147354045E-15, 1.000000000000000000 ) ) ;
#157 = PERSON_AND_ORGANIZATION_ROLE ( 'design_supplier' ) ;
#158 = ADVANCED_BREP_SHAPE_REPRESENTATION ( '62889', ( #125, #219, #149 ), #43 ) ;
#159 = FACE_OUTER_BOUND ( 'NONE', #87, .T. ) ;
#160 = EDGE_CURVE ( 'NONE', #37, #37, #141, .T. ) ;
#161 = DIRECTION ( 'NONE',  ( -3.491481338843133355E-15, -1.224646799147354045E-15, -1.000000000000000000 ) ) ;
#162 = EDGE_LOOP ( 'NONE', ( #38 ) ) ;
#163 = APPROVAL_STATUS ( 'not_yet_approved' ) ;
#164 = VERTEX_POINT ( 'NONE', #203 ) ;
#165 = EDGE_LOOP ( 'NONE', ( #26 ) ) ;
#166 = EDGE_CURVE ( 'NONE', #205, #205, #123, .T. ) ;
#167 = PERSON_AND_ORGANIZATION ( #48, #67 ) ;
#168 = ORIENTED_EDGE ( 'NONE', *, *, #9, .F. ) ;
#169 = CALENDAR_DATE ( 2021, 15, 10 ) ;
#170 = DATE_AND_TIME ( #169, #104 ) ;
#171 = APPLICATION_CONTEXT ( 'configuration controlled 3d designs of mechanical parts and assemblies' ) ;
#172 = ORIENTED_EDGE ( 'NONE', *, *, #62, .F. ) ;
#173 = CONICAL_SURFACE ( 'NONE', #198, 6.499999999999909406, 0.5235987755982974834 ) ;
#174 = DIRECTION ( 'NONE',  ( -3.491481338843133355E-15, -1.224646799147354045E-15, -1.000000000000000000 ) ) ;
#175 = PRODUCT_DEFINITION ( 'UNKNOWN', '', #142, #148 ) ;
#176 = EDGE_LOOP ( 'NONE', ( #191 ) ) ;
#177 = EDGE_LOOP ( 'NONE', ( #106 ) ) ;
#178 = FACE_BOUND ( 'NONE', #176, .T. ) ;
#179 = CALENDAR_DATE ( 2021, 15, 10 ) ;
#180 = VERTEX_POINT ( 'NONE', #55 ) ;
#181 = FACE_OUTER_BOUND ( 'NONE', #110, .T. ) ;
#182 = CARTESIAN_POINT ( 'NONE',  ( 2.094888803305880013E-13, 7.347880794884124035E-14, 60.00000000000000000 ) ) ;
#183 = SECURITY_CLASSIFICATION_LEVEL ( 'unclassified' ) ;
#184 = CARTESIAN_POINT ( 'NONE',  ( 0.0000000000000000000, 0.0000000000000000000, 0.0000000000000000000 ) ) ;
#185 = CLOSED_SHELL ( 'NONE', ( #93, #14, #138, #107, #260, #111 ) ) ;
#186 = CC_DESIGN_PERSON_AND_ORGANIZATION_ASSIGNMENT ( #76, #4, ( #47 ) ) ;
#187 = DIRECTION ( 'NONE',  ( 0.0000000000000000000, 1.000000000000000000, 0.0000000000000000000 ) ) ;
#188 = VERTEX_POINT ( 'NONE', #121 ) ;
#189 = COORDINATED_UNIVERSAL_TIME_OFFSET ( 1, 0, .AHEAD. ) ;
#190 = PRODUCT ( '62889', '62889', '', ( #116 ) ) ;
#191 = ORIENTED_EDGE ( 'NONE', *, *, #230, .T. ) ;
#192 = EDGE_LOOP ( 'NONE', ( #8 ) ) ;
#193 = APPROVAL_PERSON_ORGANIZATION ( #139, #146, #92 ) ;
#194 = EDGE_LOOP ( 'NONE', ( #253 ) ) ;
#195 = PRODUCT_DEFINITION_SHAPE ( 'NONE', 'NONE',  #175 ) ;
#196 = CC_DESIGN_PERSON_AND_ORGANIZATION_ASSIGNMENT ( #78, #157, ( #142 ) ) ;
#197 = FACE_OUTER_BOUND ( 'NONE', #128, .T. ) ;
#198 = AXIS2_PLACEMENT_3D ( 'NONE', #60, #58, #231 ) ;
#199 = CARTESIAN_POINT ( 'NONE',  ( -3.491481338843130200E-15, -1.224646799147353059E-15, -0.9999999999999991118 ) ) ;
#200 = DIRECTION ( 'NONE',  ( 4.348111776285294934E-30, -1.000000000000000000, 1.223884660965232483E-15 ) ) ;
#201 = DIRECTION ( 'NONE',  ( -4.229493211203379179E-30, 1.000000000000000000, -1.233014235375682699E-15 ) ) ;
#202 = APPROVAL_PERSON_ORGANIZATION ( #29, #3, #66 ) ;
#203 = CARTESIAN_POINT ( 'NONE',  ( 7.081355666693055195E-15, 5.099999999999999645, 2.028180872087774311 ) ) ;
#204 = FACE_OUTER_BOUND ( 'NONE', #152, .T. ) ;
#205 = VERTEX_POINT ( 'NONE', #20 ) ;
#206 = ADVANCED_FACE ( 'NONE', ( #23, #140 ), #250, .T. ) ;
#207 = DIRECTION ( 'NONE',  ( 0.0000000000000000000, 1.000000000000000000, 0.0000000000000000000 ) ) ;
#208 = LOCAL_TIME ( 11, 34, 18.00000000000000000, #71 ) ;
#209 = PERSON_AND_ORGANIZATION_ROLE ( 'creator' ) ;
#210 = CIRCLE ( 'NONE', #35, 5.099999999999996980 ) ;
#211 = PERSON_AND_ORGANIZATION_ROLE ( 'design_owner' ) ;
#212 = ORIENTED_EDGE ( 'NONE', *, *, #62, .T. ) ;
#213 = CC_DESIGN_PERSON_AND_ORGANIZATION_ASSIGNMENT ( #224, #225, ( #142 ) ) ;
#214 = CLOSED_SHELL ( 'NONE', ( #153, #17, #206, #85 ) ) ;
#215 = EDGE_CURVE ( 'NONE', #223, #223, #217, .T. ) ;
#216 = ORIENTED_EDGE ( 'NONE', *, *, #230, .F. ) ;
#217 = CIRCLE ( 'NONE', #46, 4.074999999999997513 ) ;
#218 = CC_DESIGN_APPROVAL ( #3, ( #175 ) ) ;
#219 = MANIFOLD_SOLID_BREP ( 'Corps-Déplacer/Copier1[2]', #214 ) ;
#220 = CARTESIAN_POINT ( 'NONE',  ( 2.094888803305880013E-13, 4.499279347985560234E-32, 60.00000000000000000 ) ) ;
#221 = CARTESIAN_POINT ( 'NONE',  ( 3.526396152231564058E-13, -1.236893267138826416E-14, 100.9999999999999716 ) ) ;
#222 = PRODUCT_RELATED_PRODUCT_CATEGORY ( 'detail', '', ( #190 ) ) ;
#223 = VERTEX_POINT ( 'NONE', #245 ) ;
#224 = PERSON_AND_ORGANIZATION ( #48, #67 ) ;
#225 = PERSON_AND_ORGANIZATION_ROLE ( 'creator' ) ;
#226 = DIRECTION ( 'NONE',  ( -3.491481338843133355E-15, 1.224646799147353207E-16, -1.000000000000000000 ) ) ;
#227 = APPROVAL_DATE_TIME ( #101, #146 ) ;
#228 = CARTESIAN_POINT ( 'NONE',  ( 7.081355666693077284E-15, 2.483805213094189458E-15, 2.028180872087780529 ) ) ;
#229 = EDGE_LOOP ( 'NONE', ( #109 ) ) ;
#230 = EDGE_CURVE ( 'NONE', #61, #61, #255, .T. ) ;
#231 = DIRECTION ( 'NONE',  ( 7.585201011740604304E-30, -1.000000000000000000, 2.135044278125330925E-15 ) ) ;
#232 = PERSON_AND_ORGANIZATION ( #48, #67 ) ;
#233 = CALENDAR_DATE ( 2021, 15, 10 ) ;
#234 = UNCERTAINTY_MEASURE_WITH_UNIT (LENGTH_MEASURE( 1.000000000000000082E-05 ), #103, 'distance_accuracy_value', 'NONE');
#235 = CIRCLE ( 'NONE', #22, 5.099999999999954348 ) ;
#236 = CC_DESIGN_PERSON_AND_ORGANIZATION_ASSIGNMENT ( #232, #209, ( #175 ) ) ;
#237 = AXIS2_PLACEMENT_3D ( 'NONE', #220, #73, #70 ) ;
#238 = FACE_OUTER_BOUND ( 'NONE', #257, .T. ) ;
#239 = FACE_OUTER_BOUND ( 'NONE', #162, .T. ) ;
#240 = CIRCLE ( 'NONE', #24, 5.999999999999999112 ) ;
#241 = CYLINDRICAL_SURFACE ( 'NONE', #95, 5.099999999999954348 ) ;
#242 = FACE_OUTER_BOUND ( 'NONE', #165, .T. ) ;
#243 = DIRECTION ( 'NONE',  ( -3.491481338843133355E-15, -1.224646799147354045E-15, -1.000000000000000000 ) ) ;
#244 = DATE_AND_TIME ( #57, #208 ) ;
#245 = CARTESIAN_POINT ( 'NONE',  ( 5.178490769401804528E-15, 4.074999999999999289, 1.483178704634762646 ) ) ;
#246 = DIRECTION ( 'NONE',  ( -4.275831445896958607E-31, -1.000000000000000000, -1.224646799147353207E-16 ) ) ;
#247 = CARTESIAN_POINT ( 'NONE',  ( 5.178490769401821883E-15, 1.816370053194487069E-15, 1.483178704634767531 ) ) ;
#248 = CARTESIAN_POINT ( 'NONE',  ( 2.094888803305880013E-13, -5.099999999999880629, 60.00000000000000000 ) ) ;
#249 = EDGE_LOOP ( 'NONE', ( #168 ) ) ;
#250 = CONICAL_SURFACE ( 'NONE', #129, 5.099999999999996980, 1.082104136236485603 ) ;
#251 = AXIS2_PLACEMENT_3D ( 'NONE', #32, #226, #117 ) ;
#252 = LOCAL_TIME ( 11, 34, 18.00000000000000000, #19 ) ;
#253 = ORIENTED_EDGE ( 'NONE', *, *, #160, .T. ) ;
#254 = APPROVAL_DATE_TIME ( #49, #77 ) ;
#255 = CIRCLE ( 'NONE', #65, 5.000000000000001776 ) ;
#256 = CC_DESIGN_APPROVAL ( #77, ( #142 ) ) ;
#257 = EDGE_LOOP ( 'NONE', ( #172 ) ) ;
#258 = EDGE_LOOP ( 'NONE', ( #212 ) ) ;
#259 = DIRECTION ( 'NONE',  ( -3.491481338843133355E-15, 1.224646799147353207E-16, -1.000000000000000000 ) ) ;
#260 = ADVANCED_FACE ( 'NONE', ( #21, #242 ), #173, .T. ) ;
#261 = DIRECTION ( 'NONE',  ( -4.229493211203344146E-30, 1.000000000000000000, -1.190496503121338952E-15 ) ) ;
#262 = AXIS2_PLACEMENT_3D ( 'NONE', #182, #79, #74 ) ;
#263 = FACE_OUTER_BOUND ( 'NONE', #258, .T. ) ;
ENDSEC;
END-ISO-10303-21;
