ISO-10303-21;
HEADER;
FILE_DESCRIPTION (( 'STEP AP203' ),
    '1' );
FILE_NAME ('62888.step',
    '2021-10-15T09:34:18',
    ( '' ),
    ( '' ),
    'SwSTEP 2.0',
    'SolidWorks 2019',
    '' );
FILE_SCHEMA (( 'CONFIG_CONTROL_DESIGN' ));
ENDSEC;

DATA;
#1 = CC_DESIGN_PERSON_AND_ORGANIZATION_ASSIGNMENT ( #131, #10, ( #263 ) ) ;
#2 = APPLICATION_PROTOCOL_DEFINITION ( 'international standard', 'config_control_design', 1994, #165 ) ;
#3 = ORIENTED_EDGE ( 'NONE', *, *, #159, .T. ) ;
#4 = VERTEX_POINT ( 'NONE', #187 ) ;
#5 = DIRECTION ( 'NONE',  ( 3.491481338843133355E-15, 1.224646799147354045E-15, 1.000000000000000000 ) ) ;
#6 = AXIS2_PLACEMENT_3D ( 'NONE', #127, #238, #11 ) ;
#7 = LOCAL_TIME ( 11, 34, 18.00000000000000000, #66 ) ;
#8 = DIRECTION ( 'NONE',  ( 8.217301096052207241E-30, -1.000000000000000000, 2.312964634635743056E-15 ) ) ;
#9 = DIRECTION ( 'NONE',  ( -4.314083075427447547E-30, 1.000000000000000000, -1.214306433183776010E-15 ) ) ;
#10 = PERSON_AND_ORGANIZATION_ROLE ( 'creator' ) ;
#11 = DIRECTION ( 'NONE',  ( -4.237045877651920979E-30, 1.000000000000000000, -1.246832498358330691E-15 ) ) ;
#12 = CC_DESIGN_PERSON_AND_ORGANIZATION_ASSIGNMENT ( #50, #88, ( #123 ) ) ;
#13 = FACE_BOUND ( 'NONE', #210, .T. ) ;
#14 = DIRECTION ( 'NONE',  ( -3.491481338843133355E-15, 1.224646799147353207E-16, -1.000000000000000000 ) ) ;
#15 = PERSON_AND_ORGANIZATION_ROLE ( 'design_supplier' ) ;
#16 = APPROVAL_STATUS ( 'not_yet_approved' ) ;
#17 = CARTESIAN_POINT ( 'NONE',  ( 0.0000000000000000000, 0.0000000000000000000, 0.0000000000000000000 ) ) ;
#18 = APPROVAL_PERSON_ORGANIZATION ( #34, #255, #215 ) ;
#19 = VERTEX_POINT ( 'NONE', #56 ) ;
#20 = ADVANCED_FACE ( 'NONE', ( #108, #70 ), #71, .T. ) ;
#21 = DIRECTION ( 'NONE',  ( 0.0000000000000000000, 0.0000000000000000000, 1.000000000000000000 ) ) ;
#22 = CARTESIAN_POINT ( 'NONE',  ( 5.083181123339212410E-15, 1.782939929516061198E-15, 1.455880937064802705 ) ) ;
#23 = DIRECTION ( 'NONE',  ( 7.585201011740604304E-30, -1.000000000000000000, 2.135044278125330925E-15 ) ) ;
#24 = CLOSED_SHELL ( 'NONE', ( #181, #121, #20, #200 ) ) ;
#25 = DIRECTION ( 'NONE',  ( 3.491481338843133355E-15, -1.224646799147353207E-16, 1.000000000000000000 ) ) ;
#26 = FACE_BOUND ( 'NONE', #95, .T. ) ;
#27 = ADVANCED_FACE ( 'NONE', ( #151 ), #87, .F. ) ;
#28 = FACE_OUTER_BOUND ( 'NONE', #145, .T. ) ;
#29 = MANIFOLD_SOLID_BREP ( 'Corps-Déplacer/Copier1[2]', #24 ) ;
#30 = AXIS2_PLACEMENT_3D ( 'NONE', #205, #225, #60 ) ;
#31 = DATE_TIME_ROLE ( 'classification_date' ) ;
#32 = DIRECTION ( 'NONE',  ( -4.314083075427447547E-30, 1.000000000000000000, -1.214306433183776010E-15 ) ) ;
#33 = MANIFOLD_SOLID_BREP ( 'Corps-Déplacer/Copier1[1]', #241 ) ;
#34 = PERSON_AND_ORGANIZATION ( #223, #244 ) ;
#35 = CC_DESIGN_PERSON_AND_ORGANIZATION_ASSIGNMENT ( #96, #185, ( #48 ) ) ;
#36 = APPROVAL_ROLE ( '' ) ;
#37 = AXIS2_PLACEMENT_3D ( 'NONE', #253, #44, #68 ) ;
#38 = ORIENTED_EDGE ( 'NONE', *, *, #77, .T. ) ;
#39 =( NAMED_UNIT ( * ) SI_UNIT ( $, .STERADIAN. ) SOLID_ANGLE_UNIT ( ) );
#40 = VERTEX_POINT ( 'NONE', #183 ) ;
#41 = CARTESIAN_POINT ( 'NONE',  ( 2.094888803305880013E-13, -4.999999999999880984, 60.00000000000000000 ) ) ;
#42 = DIRECTION ( 'NONE',  ( -4.314083075427410413E-30, 1.000000000000000000, -1.214306433183765558E-15 ) ) ;
#43 = ADVANCED_FACE ( 'NONE', ( #236, #13 ), #109, .T. ) ;
#44 = DIRECTION ( 'NONE',  ( -3.491481338843133355E-15, -1.224646799147354045E-15, -1.000000000000000000 ) ) ;
#45 = CYLINDRICAL_SURFACE ( 'NONE', #228, 4.999999999999954703 ) ;
#46 = CIRCLE ( 'NONE', #37, 4.999999999999912070 ) ;
#47 = DIRECTION ( 'NONE',  ( -3.491481338843133355E-15, 1.224646799147353207E-16, -1.000000000000000000 ) ) ;
#48 = PRODUCT ( '62888', '62888', '', ( #118 ) ) ;
#49 = CARTESIAN_POINT ( 'NONE',  ( 0.0000000000000000000, 0.0000000000000000000, 0.0000000000000000000 ) ) ;
#50 = PERSON_AND_ORGANIZATION ( #223, #244 ) ;
#51 = DIRECTION ( 'NONE',  ( 0.0000000000000000000, -1.000000000000000000, 0.0000000000000000000 ) ) ;
#52 = SHAPE_DEFINITION_REPRESENTATION ( #130, #126 ) ;
#53 = LOCAL_TIME ( 11, 34, 18.00000000000000000, #168 ) ;
#54 = CC_DESIGN_PERSON_AND_ORGANIZATION_ASSIGNMENT ( #250, #164, ( #259 ) ) ;
#55 = EDGE_LOOP ( 'NONE', ( #243 ) ) ;
#56 = CARTESIAN_POINT ( 'NONE',  ( 2.094888803305880013E-13, -4.999999999999880984, 60.00000000000000000 ) ) ;
#57 = CARTESIAN_POINT ( 'NONE',  ( 3.526396152231564058E-13, 5.999999999999989342, 100.9999999999999716 ) ) ;
#58 = AXIS2_PLACEMENT_3D ( 'NONE', #155, #106, #102 ) ;
#59 = ORIENTED_EDGE ( 'NONE', *, *, #219, .F. ) ;
#60 = DIRECTION ( 'NONE',  ( 0.0000000000000000000, 1.000000000000000000, 0.0000000000000000000 ) ) ;
#61 = EDGE_LOOP ( 'NONE', ( #207 ) ) ;
#62 = EDGE_LOOP ( 'NONE', ( #193 ) ) ;
#63 = CALENDAR_DATE ( 2021, 15, 10 ) ;
#64 = AXIS2_PLACEMENT_3D ( 'NONE', #231, #5, #173 ) ;
#65 = DIRECTION ( 'NONE',  ( -3.491481338843133355E-15, -1.224646799147354045E-15, -1.000000000000000000 ) ) ;
#66 = COORDINATED_UNIVERSAL_TIME_OFFSET ( 1, 0, .AHEAD. ) ;
#67 = CC_DESIGN_DATE_AND_TIME_ASSIGNMENT ( #148, #227, ( #259 ) ) ;
#68 = DIRECTION ( 'NONE',  ( 0.0000000000000000000, 1.000000000000000000, 0.0000000000000000000 ) ) ;
#69 = DIRECTION ( 'NONE',  ( 0.0000000000000000000, -1.000000000000000000, 0.0000000000000000000 ) ) ;
#70 = FACE_OUTER_BOUND ( 'NONE', #246, .T. ) ;
#71 = CONICAL_SURFACE ( 'NONE', #64, 4.999999999999997335, 1.082104136236485381 ) ;
#72 = DATE_AND_TIME ( #112, #150 ) ;
#73 = DIRECTION ( 'NONE',  ( 3.491481338843133355E-15, 1.224646799147354045E-15, 1.000000000000000000 ) ) ;
#74 = DIRECTION ( 'NONE',  ( -3.491481338843133355E-15, 1.224646799147353207E-16, -1.000000000000000000 ) ) ;
#75 = CONICAL_SURFACE ( 'NONE', #103, 6.499999999999909406, 0.5235987755982982605 ) ;
#76 = CC_DESIGN_SECURITY_CLASSIFICATION ( #123, ( #263 ) ) ;
#77 = EDGE_CURVE ( 'NONE', #98, #98, #170, .T. ) ;
#78 = CONICAL_SURFACE ( 'NONE', #214, 3.999999999999998224, 1.221730476396032161 ) ;
#79 =( NAMED_UNIT ( * ) PLANE_ANGLE_UNIT ( ) SI_UNIT ( $, .RADIAN. ) );
#80 = PERSON_AND_ORGANIZATION ( #223, #244 ) ;
#81 = CIRCLE ( 'NONE', #235, 4.999999999999954703 ) ;
#82 = EDGE_LOOP ( 'NONE', ( #59 ) ) ;
#83 = CALENDAR_DATE ( 2021, 15, 10 ) ;
#84 = EDGE_CURVE ( 'NONE', #19, #19, #115, .T. ) ;
#85 = DIRECTION ( 'NONE',  ( 3.491481338843133355E-15, 1.224646799147354045E-15, 1.000000000000000000 ) ) ;
#86 = FACE_OUTER_BOUND ( 'NONE', #186, .T. ) ;
#87 = PLANE ( 'NONE',  #58 ) ;
#88 = PERSON_AND_ORGANIZATION_ROLE ( 'classification_officer' ) ;
#89 = CARTESIAN_POINT ( 'NONE',  ( -3.491481338843130200E-15, -1.224646799147353059E-15, -0.9999999999999991118 ) ) ;
#90 = CARTESIAN_POINT ( 'NONE',  ( 2.094888803305880013E-13, 7.347880794884124035E-14, 60.00000000000000000 ) ) ;
#91 = APPROVAL_DATE_TIME ( #177, #138 ) ;
#92 = DIRECTION ( 'NONE',  ( 4.275831445896958607E-31, 1.000000000000000000, 1.224646799147353207E-16 ) ) ;
#93 = CALENDAR_DATE ( 2021, 15, 10 ) ;
#94 = CC_DESIGN_APPROVAL ( #255, ( #123 ) ) ;
#95 = EDGE_LOOP ( 'NONE', ( #124 ) ) ;
#96 = PERSON_AND_ORGANIZATION ( #223, #244 ) ;
#97 = ORIENTED_EDGE ( 'NONE', *, *, #84, .F. ) ;
#98 = VERTEX_POINT ( 'NONE', #144 ) ;
#99 = VERTEX_POINT ( 'NONE', #41 ) ;
#100 = APPROVAL ( #120, 'UNSPECIFIED' ) ;
#101 = COORDINATED_UNIVERSAL_TIME_OFFSET ( 1, 0, .AHEAD. ) ;
#102 = DIRECTION ( 'NONE',  ( -4.275831445896958607E-31, -1.000000000000000000, -1.224646799147353207E-16 ) ) ;
#103 = AXIS2_PLACEMENT_3D ( 'NONE', #208, #73, #23 ) ;
#104 = APPROVAL_PERSON_ORGANIZATION ( #146, #100, #220 ) ;
#105 = DIRECTION ( 'NONE',  ( -3.491481338843133355E-15, 1.224646799147353207E-16, -1.000000000000000000 ) ) ;
#106 = DIRECTION ( 'NONE',  ( 3.491481338843133355E-15, -1.224646799147353207E-16, 1.000000000000000000 ) ) ;
#107 = EDGE_CURVE ( 'NONE', #4, #4, #122, .T. ) ;
#108 = FACE_BOUND ( 'NONE', #61, .T. ) ;
#109 = CONICAL_SURFACE ( 'NONE', #252, 5.000000000000001776, 0.7853981633974410625 ) ;
#110 = AXIS2_PLACEMENT_3D ( 'NONE', #198, #14, #92 ) ;
#111 = PLANE ( 'NONE',  #110 ) ;
#112 = CALENDAR_DATE ( 2021, 15, 10 ) ;
#113 = EDGE_CURVE ( 'NONE', #190, #190, #149, .T. ) ;
#114 = CALENDAR_DATE ( 2021, 15, 10 ) ;
#115 = CIRCLE ( 'NONE', #139, 4.999999999999954703 ) ;
#116 = CIRCLE ( 'NONE', #230, 6.000000000000001776 ) ;
#117 = EDGE_LOOP ( 'NONE', ( #167 ) ) ;
#118 = MECHANICAL_CONTEXT ( 'NONE', #211, 'mechanical' ) ;
#119 = ORIENTED_EDGE ( 'NONE', *, *, #222, .T. ) ;
#120 = APPROVAL_STATUS ( 'not_yet_approved' ) ;
#121 = ADVANCED_FACE ( 'NONE', ( #251 ), #78, .T. ) ;
#122 = CIRCLE ( 'NONE', #195, 4.999999999999997335 ) ;
#123 = SECURITY_CLASSIFICATION ( '', '', #237 ) ;
#124 = ORIENTED_EDGE ( 'NONE', *, *, #159, .F. ) ;
#125 = COORDINATED_UNIVERSAL_TIME_OFFSET ( 1, 0, .AHEAD. ) ;
#126 = ADVANCED_BREP_SHAPE_REPRESENTATION ( '62888', ( #33, #29, #196 ), #156 ) ;
#127 = CARTESIAN_POINT ( 'NONE',  ( 5.083181123339212410E-15, 1.782939929516061198E-15, 1.455880937064802705 ) ) ;
#128 = LOCAL_TIME ( 11, 34, 18.00000000000000000, #125 ) ;
#129 = FACE_OUTER_BOUND ( 'NONE', #224, .T. ) ;
#130 = PRODUCT_DEFINITION_SHAPE ( 'NONE', 'NONE',  #259 ) ;
#131 = PERSON_AND_ORGANIZATION ( #223, #244 ) ;
#132 = DIRECTION ( 'NONE',  ( -4.275831445896958607E-31, -1.000000000000000000, -1.224646799147353207E-16 ) ) ;
#133 = DIRECTION ( 'NONE',  ( -3.491481338843133355E-15, 1.224646799147353207E-16, -1.000000000000000000 ) ) ;
#134 = ADVANCED_FACE ( 'NONE', ( #233, #157 ), #45, .T. ) ;
#135 = PERSON_AND_ORGANIZATION ( #223, #244 ) ;
#136 = CARTESIAN_POINT ( 'NONE',  ( -3.491481338843130200E-15, -1.224646799147353059E-15, -0.9999999999999991118 ) ) ;
#137 = CC_DESIGN_APPROVAL ( #100, ( #259 ) ) ;
#138 = APPROVAL ( #16, 'UNSPECIFIED' ) ;
#139 = AXIS2_PLACEMENT_3D ( 'NONE', #169, #47, #69 ) ;
#140 = ORIENTED_EDGE ( 'NONE', *, *, #107, .T. ) ;
#141 = CARTESIAN_POINT ( 'NONE',  ( 3.561310965619995770E-13, 4.999999999999989342, 102.0000000000000000 ) ) ;
#142 = VERTEX_POINT ( 'NONE', #141 ) ;
#143 = APPROVAL_PERSON_ORGANIZATION ( #80, #138, #36 ) ;
#144 = CARTESIAN_POINT ( 'NONE',  ( 2.329937100973591185E-13, -5.999999999999917399, 66.73205080756903840 ) ) ;
#145 = EDGE_LOOP ( 'NONE', ( #226 ) ) ;
#146 = PERSON_AND_ORGANIZATION ( #223, #244 ) ;
#147 = EDGE_LOOP ( 'NONE', ( #119 ) ) ;
#148 = DATE_AND_TIME ( #63, #53 ) ;
#149 = CIRCLE ( 'NONE', #6, 3.999999999999998224 ) ;
#150 = LOCAL_TIME ( 11, 34, 18.00000000000000000, #217 ) ;
#151 = FACE_OUTER_BOUND ( 'NONE', #203, .T. ) ;
#152 = APPROVAL_STATUS ( 'not_yet_approved' ) ;
#153 = DIRECTION ( 'NONE',  ( -3.491481338843133355E-15, -1.224646799147354045E-15, -1.000000000000000000 ) ) ;
#154 = DESIGN_CONTEXT ( 'detailed design', #165, 'design' ) ;
#155 = CARTESIAN_POINT ( 'NONE',  ( 2.094888803305880013E-13, 4.499279347985560234E-32, 60.00000000000000000 ) ) ;
#156 =( GEOMETRIC_REPRESENTATION_CONTEXT ( 3 ) GLOBAL_UNCERTAINTY_ASSIGNED_CONTEXT ( ( #172 ) ) GLOBAL_UNIT_ASSIGNED_CONTEXT ( ( #166, #79, #39 ) ) REPRESENTATION_CONTEXT ( 'NONE', 'WORKASPACE' ) );
#157 = FACE_OUTER_BOUND ( 'NONE', #82, .T. ) ;
#158 = CYLINDRICAL_SURFACE ( 'NONE', #199, 5.999999999999999112 ) ;
#159 = EDGE_CURVE ( 'NONE', #40, #40, #46, .T. ) ;
#160 = APPROVAL_DATE_TIME ( #212, #255 ) ;
#161 = FACE_OUTER_BOUND ( 'NONE', #163, .T. ) ;
#162 = APPROVAL_DATE_TIME ( #204, #100 ) ;
#163 = EDGE_LOOP ( 'NONE', ( #221 ) ) ;
#164 = PERSON_AND_ORGANIZATION_ROLE ( 'creator' ) ;
#165 = APPLICATION_CONTEXT ( 'configuration controlled 3d designs of mechanical parts and assemblies' ) ;
#166 =( LENGTH_UNIT ( ) NAMED_UNIT ( * ) SI_UNIT ( .MILLI., .METRE. ) );
#167 = ORIENTED_EDGE ( 'NONE', *, *, #77, .F. ) ;
#168 = COORDINATED_UNIVERSAL_TIME_OFFSET ( 1, 0, .AHEAD. ) ;
#169 = CARTESIAN_POINT ( 'NONE',  ( 2.094888803305880013E-13, 7.347880794884124035E-14, 60.00000000000000000 ) ) ;
#170 = CIRCLE ( 'NONE', #180, 5.999999999999999112 ) ;
#171 = CIRCLE ( 'NONE', #30, 5.000000000000001776 ) ;
#172 = UNCERTAINTY_MEASURE_WITH_UNIT (LENGTH_MEASURE( 1.000000000000000082E-05 ), #166, 'distance_accuracy_value', 'NONE');
#173 = DIRECTION ( 'NONE',  ( 4.314083075427410413E-30, -1.000000000000000000, 1.214306433183765558E-15 ) ) ;
#174 = DIRECTION ( 'NONE',  ( 0.0000000000000000000, 1.000000000000000000, 0.0000000000000000000 ) ) ;
#175 = CARTESIAN_POINT ( 'NONE',  ( 6.939634681672147933E-15, 2.434096183076747792E-15, 1.987590368726279477 ) ) ;
#176 = PLANE ( 'NONE',  #262 ) ;
#177 = DATE_AND_TIME ( #114, #128 ) ;
#178 = DIRECTION ( 'NONE',  ( 0.0000000000000000000, 1.000000000000000000, 0.0000000000000000000 ) ) ;
#179 = CARTESIAN_POINT ( 'NONE',  ( 3.526396152231564058E-13, -1.236893267138826416E-14, 100.9999999999999716 ) ) ;
#180 = AXIS2_PLACEMENT_3D ( 'NONE', #197, #194, #8 ) ;
#181 = ADVANCED_FACE ( 'NONE', ( #129 ), #176, .T. ) ;
#182 = ADVANCED_FACE ( 'NONE', ( #26, #257 ), #75, .T. ) ;
#183 = CARTESIAN_POINT ( 'NONE',  ( 2.269462870248037060E-13, 4.999999999999992006, 65.00000000000000000 ) ) ;
#184 = ORIENTED_EDGE ( 'NONE', *, *, #222, .F. ) ;
#185 = PERSON_AND_ORGANIZATION_ROLE ( 'design_owner' ) ;
#186 = EDGE_LOOP ( 'NONE', ( #38 ) ) ;
#187 = CARTESIAN_POINT ( 'NONE',  ( 6.939634681672126633E-15, 5.000000000000000000, 1.987590368726273482 ) ) ;
#188 = ADVANCED_FACE ( 'NONE', ( #86, #254 ), #158, .T. ) ;
#189 = ORIENTED_EDGE ( 'NONE', *, *, #219, .T. ) ;
#190 = VERTEX_POINT ( 'NONE', #202 ) ;
#191 = PRODUCT_RELATED_PRODUCT_CATEGORY ( 'detail', '', ( #48 ) ) ;
#192 = CARTESIAN_POINT ( 'NONE',  ( 3.561310965619995770E-13, -1.249139735130300089E-14, 102.0000000000000000 ) ) ;
#193 = ORIENTED_EDGE ( 'NONE', *, *, #113, .T. ) ;
#194 = DIRECTION ( 'NONE',  ( 3.491481338843133355E-15, 1.224646799147354045E-15, 1.000000000000000000 ) ) ;
#195 = AXIS2_PLACEMENT_3D ( 'NONE', #175, #153, #42 ) ;
#196 = AXIS2_PLACEMENT_3D ( 'NONE', #17, #21, #245 ) ;
#197 = CARTESIAN_POINT ( 'NONE',  ( 2.329937100973590680E-13, 8.172319242202802310E-14, 66.73205080756902419 ) ) ;
#198 = CARTESIAN_POINT ( 'NONE',  ( 3.561310965619995770E-13, 3.749399456654627598E-32, 102.0000000000000000 ) ) ;
#199 = AXIS2_PLACEMENT_3D ( 'NONE', #49, #133, #213 ) ;
#200 = ADVANCED_FACE ( 'NONE', ( #28, #260 ), #258, .T. ) ;
#201 = EDGE_LOOP ( 'NONE', ( #184 ) ) ;
#202 = CARTESIAN_POINT ( 'NONE',  ( 5.083181123339195055E-15, 4.000000000000000000, 1.455880937064797598 ) ) ;
#203 = EDGE_LOOP ( 'NONE', ( #189 ) ) ;
#204 = DATE_AND_TIME ( #83, #261 ) ;
#205 = CARTESIAN_POINT ( 'NONE',  ( 3.561310965619995770E-13, -1.249139735130300089E-14, 102.0000000000000000 ) ) ;
#206 = CC_DESIGN_DATE_AND_TIME_ASSIGNMENT ( #72, #31, ( #123 ) ) ;
#207 = ORIENTED_EDGE ( 'NONE', *, *, #113, .F. ) ;
#208 = CARTESIAN_POINT ( 'NONE',  ( 2.360174216336360422E-13, 8.278376766075274548E-14, 67.59807621135331601 ) ) ;
#209 = EDGE_LOOP ( 'NONE', ( #3 ) ) ;
#210 = EDGE_LOOP ( 'NONE', ( #248 ) ) ;
#211 = APPLICATION_CONTEXT ( 'configuration controlled 3d designs of mechanical parts and assemblies' ) ;
#212 = DATE_AND_TIME ( #93, #7 ) ;
#213 = DIRECTION ( 'NONE',  ( 4.275831445896959482E-31, 1.000000000000000000, 1.224646799147353207E-16 ) ) ;
#214 = AXIS2_PLACEMENT_3D ( 'NONE', #22, #85, #232 ) ;
#215 = APPROVAL_ROLE ( '' ) ;
#216 = DIRECTION ( 'NONE',  ( -3.491481338843133355E-15, -1.224646799147354045E-15, -1.000000000000000000 ) ) ;
#217 = COORDINATED_UNIVERSAL_TIME_OFFSET ( 1, 0, .AHEAD. ) ;
#218 = CC_DESIGN_APPROVAL ( #138, ( #263 ) ) ;
#219 = EDGE_CURVE ( 'NONE', #99, #99, #81, .T. ) ;
#220 = APPROVAL_ROLE ( '' ) ;
#221 = ORIENTED_EDGE ( 'NONE', *, *, #249, .F. ) ;
#222 = EDGE_CURVE ( 'NONE', #247, #247, #116, .T. ) ;
#223 = PERSON ( 'UNSPECIFIED', 'UNSPECIFIED', 'UNSPECIFIED', ('UNSPECIFIED'), ('UNSPECIFIED'), ('UNSPECIFIED') ) ;
#224 = EDGE_LOOP ( 'NONE', ( #97 ) ) ;
#225 = DIRECTION ( 'NONE',  ( -3.491481338843133355E-15, 1.224646799147353207E-16, -1.000000000000000000 ) ) ;
#226 = ORIENTED_EDGE ( 'NONE', *, *, #84, .T. ) ;
#227 = DATE_TIME_ROLE ( 'creation_date' ) ;
#228 = AXIS2_PLACEMENT_3D ( 'NONE', #89, #65, #9 ) ;
#229 = ADVANCED_FACE ( 'NONE', ( #161 ), #111, .F. ) ;
#230 = AXIS2_PLACEMENT_3D ( 'NONE', #179, #74, #178 ) ;
#231 = CARTESIAN_POINT ( 'NONE',  ( 6.939634681672147933E-15, 2.434096183076747792E-15, 1.987590368726279477 ) ) ;
#232 = DIRECTION ( 'NONE',  ( 4.237045877651920979E-30, -1.000000000000000000, 1.246832498358330691E-15 ) ) ;
#233 = FACE_OUTER_BOUND ( 'NONE', #209, .T. ) ;
#234 = AXIS2_PLACEMENT_3D ( 'NONE', #136, #216, #32 ) ;
#235 = AXIS2_PLACEMENT_3D ( 'NONE', #90, #239, #51 ) ;
#236 = FACE_OUTER_BOUND ( 'NONE', #201, .T. ) ;
#237 = SECURITY_CLASSIFICATION_LEVEL ( 'unclassified' ) ;
#238 = DIRECTION ( 'NONE',  ( -3.491481338843133355E-15, -1.224646799147354045E-15, -1.000000000000000000 ) ) ;
#239 = DIRECTION ( 'NONE',  ( -3.491481338843133355E-15, 1.224646799147353207E-16, -1.000000000000000000 ) ) ;
#240 = CC_DESIGN_PERSON_AND_ORGANIZATION_ASSIGNMENT ( #135, #15, ( #263 ) ) ;
#241 = CLOSED_SHELL ( 'NONE', ( #188, #43, #229, #134, #182, #27 ) ) ;
#242 = APPLICATION_PROTOCOL_DEFINITION ( 'international standard', 'config_control_design', 1994, #211 ) ;
#243 = ORIENTED_EDGE ( 'NONE', *, *, #107, .F. ) ;
#244 = ORGANIZATION ( 'UNSPECIFIED', 'UNSPECIFIED', '' ) ;
#245 = DIRECTION ( 'NONE',  ( 1.000000000000000000, 0.0000000000000000000, 0.0000000000000000000 ) ) ;
#246 = EDGE_LOOP ( 'NONE', ( #140 ) ) ;
#247 = VERTEX_POINT ( 'NONE', #57 ) ;
#248 = ORIENTED_EDGE ( 'NONE', *, *, #249, .T. ) ;
#249 = EDGE_CURVE ( 'NONE', #142, #142, #171, .T. ) ;
#250 = PERSON_AND_ORGANIZATION ( #223, #244 ) ;
#251 = FACE_OUTER_BOUND ( 'NONE', #62, .T. ) ;
#252 = AXIS2_PLACEMENT_3D ( 'NONE', #192, #105, #174 ) ;
#253 = CARTESIAN_POINT ( 'NONE',  ( 2.269462870248037060E-13, 7.960204194457801038E-14, 65.00000000000000000 ) ) ;
#254 = FACE_OUTER_BOUND ( 'NONE', #147, .T. ) ;
#255 = APPROVAL ( #152, 'UNSPECIFIED' ) ;
#256 = CARTESIAN_POINT ( 'NONE',  ( 2.094888803305880013E-13, 4.499279347985560234E-32, 60.00000000000000000 ) ) ;
#257 = FACE_OUTER_BOUND ( 'NONE', #117, .T. ) ;
#258 = CYLINDRICAL_SURFACE ( 'NONE', #234, 4.999999999999954703 ) ;
#259 = PRODUCT_DEFINITION ( 'UNKNOWN', '', #263, #154 ) ;
#260 = FACE_OUTER_BOUND ( 'NONE', #55, .T. ) ;
#261 = LOCAL_TIME ( 11, 34, 18.00000000000000000, #101 ) ;
#262 = AXIS2_PLACEMENT_3D ( 'NONE', #256, #25, #132 ) ;
#263 = PRODUCT_DEFINITION_FORMATION_WITH_SPECIFIED_SOURCE ( 'ANY', '', #48, .NOT_KNOWN. ) ;
ENDSEC;
END-ISO-10303-21;
