ISO-10303-21;
HEADER;
FILE_DESCRIPTION (( 'STEP AP203' ),
    '1' );
FILE_NAME ('62887.step',
    '2021-10-15T09:34:17',
    ( '' ),
    ( '' ),
    'SwSTEP 2.0',
    'SolidWorks 2019',
    '' );
FILE_SCHEMA (( 'CONFIG_CONTROL_DESIGN' ));
ENDSEC;

DATA;
#1 = CARTESIAN_POINT ( 'NONE',  ( 1.926362159436283277E-13, -4.999999999999931610, 55.17320508075702890 ) ) ;
#2 = CARTESIAN_POINT ( 'NONE',  ( 4.987871477276584004E-15, 3.924999999999999822, 1.428583169494832328 ) ) ;
#3 = EDGE_CURVE ( 'NONE', #24, #24, #57, .T. ) ;
#4 = CARTESIAN_POINT ( 'NONE',  ( 1.745740669421566678E-13, -4.899999999999900879, 50.00000000000000000 ) ) ;
#5 = APPLICATION_PROTOCOL_DEFINITION ( 'international standard', 'config_control_design', 1994, #59 ) ;
#6 = FACE_OUTER_BOUND ( 'NONE', #190, .T. ) ;
#7 = PERSON_AND_ORGANIZATION ( #89, #41 ) ;
#8 = AXIS2_PLACEMENT_3D ( 'NONE', #83, #63, #153 ) ;
#9 = PERSON_AND_ORGANIZATION ( #89, #41 ) ;
#10 = ORIENTED_EDGE ( 'NONE', *, *, #85, .T. ) ;
#11 = EDGE_LOOP ( 'NONE', ( #216 ) ) ;
#12 = CLOSED_SHELL ( 'NONE', ( #186, #123, #133, #203, #43, #62 ) ) ;
#13 = DATE_AND_TIME ( #230, #166 ) ;
#14 = ORIENTED_EDGE ( 'NONE', *, *, #85, .F. ) ;
#15 = CC_DESIGN_DATE_AND_TIME_ASSIGNMENT ( #72, #30, ( #19 ) ) ;
#16 = DIRECTION ( 'NONE',  ( -5.031000671052446421E-30, 1.000000000000000000, -1.416100796715782064E-15 ) ) ;
#17 = FACE_BOUND ( 'NONE', #58, .T. ) ;
#18 = ADVANCED_BREP_SHAPE_REPRESENTATION ( '62887', ( #208, #121, #191 ), #209 ) ;
#19 = SECURITY_CLASSIFICATION ( '', '', #182 ) ;
#20 = CARTESIAN_POINT ( 'NONE',  ( 6.797913696651213848E-15, 2.384387153059304549E-15, 1.946999865364777760 ) ) ;
#21 = DIRECTION ( 'NONE',  ( 3.491481338843133355E-15, -1.224646799147353207E-16, 1.000000000000000000 ) ) ;
#22 = FACE_BOUND ( 'NONE', #106, .T. ) ;
#23 = CARTESIAN_POINT ( 'NONE',  ( -3.491481338843130200E-15, -1.224646799147353059E-15, -0.9999999999999991118 ) ) ;
#24 = VERTEX_POINT ( 'NONE', #200 ) ;
#25 = FACE_OUTER_BOUND ( 'NONE', #73, .T. ) ;
#26 = CARTESIAN_POINT ( 'NONE',  ( 1.745740669421566678E-13, 6.123233995736771292E-14, 50.00000000000000000 ) ) ;
#27 = DATE_AND_TIME ( #128, #198 ) ;
#28 = EDGE_LOOP ( 'NONE', ( #207 ) ) ;
#29 = CONICAL_SURFACE ( 'NONE', #148, 4.899999999999997691, 1.082104136236485381 ) ;
#30 = DATE_TIME_ROLE ( 'classification_date' ) ;
#31 = AXIS2_PLACEMENT_3D ( 'NONE', #241, #160, #243 ) ;
#32 = ORIENTED_EDGE ( 'NONE', *, *, #165, .T. ) ;
#33 = PERSON_AND_ORGANIZATION ( #89, #41 ) ;
#34 = ORIENTED_EDGE ( 'NONE', *, *, #227, .T. ) ;
#35 = PRODUCT_DEFINITION_FORMATION_WITH_SPECIFIED_SOURCE ( 'ANY', '', #246, .NOT_KNOWN. ) ;
#36 = CC_DESIGN_PERSON_AND_ORGANIZATION_ASSIGNMENT ( #149, #185, ( #35 ) ) ;
#37 = DIRECTION ( 'NONE',  ( -3.491481338843133355E-15, 1.224646799147353207E-16, -1.000000000000000000 ) ) ;
#38 = DIRECTION ( 'NONE',  ( 3.491481338843133355E-15, 1.224646799147354045E-15, 1.000000000000000000 ) ) ;
#39 = FACE_BOUND ( 'NONE', #11, .T. ) ;
#40 = CONICAL_SURFACE ( 'NONE', #178, 5.499999999999924505, 0.5235987755983000369 ) ;
#41 = ORGANIZATION ( 'UNSPECIFIED', 'UNSPECIFIED', '' ) ;
#42 = DIRECTION ( 'NONE',  ( -3.491481338843133355E-15, 1.224646799147353207E-16, -1.000000000000000000 ) ) ;
#43 = ADVANCED_FACE ( 'NONE', ( #39, #222 ), #40, .T. ) ;
#44 = DIRECTION ( 'NONE',  ( -3.491481338843133355E-15, -1.224646799147354045E-15, -1.000000000000000000 ) ) ;
#45 = EDGE_CURVE ( 'NONE', #65, #65, #84, .T. ) ;
#46 = LOCAL_TIME ( 11, 34, 17.00000000000000000, #124 ) ;
#47 = FACE_OUTER_BOUND ( 'NONE', #101, .T. ) ;
#48 = APPLICATION_CONTEXT ( 'configuration controlled 3d designs of mechanical parts and assemblies' ) ;
#49 = AXIS2_PLACEMENT_3D ( 'NONE', #135, #171, #16 ) ;
#50 = CIRCLE ( 'NONE', #204, 4.899999999999962164 ) ;
#51 = CARTESIAN_POINT ( 'NONE',  ( 6.797913696651193338E-15, 4.900000000000000355, 1.946999865364771543 ) ) ;
#52 = CC_DESIGN_PERSON_AND_ORGANIZATION_ASSIGNMENT ( #9, #234, ( #66 ) ) ;
#53 = APPROVAL_STATUS ( 'not_yet_approved' ) ;
#54 = DATE_TIME_ROLE ( 'creation_date' ) ;
#55 = PERSON_AND_ORGANIZATION ( #89, #41 ) ;
#56 = EDGE_LOOP ( 'NONE', ( #212 ) ) ;
#57 = CIRCLE ( 'NONE', #114, 5.000000000000000888 ) ;
#58 = EDGE_LOOP ( 'NONE', ( #195 ) ) ;
#59 = APPLICATION_CONTEXT ( 'configuration controlled 3d designs of mechanical parts and assemblies' ) ;
#60 = CARTESIAN_POINT ( 'NONE',  ( 3.107418391570388560E-13, -1.089935651241144239E-14, 89.00000000000000000 ) ) ;
#61 = DIRECTION ( 'NONE',  ( -3.491481338843133355E-15, 1.224646799147353207E-16, -1.000000000000000000 ) ) ;
#62 = ADVANCED_FACE ( 'NONE', ( #115 ), #240, .F. ) ;
#63 = DIRECTION ( 'NONE',  ( -3.491481338843133355E-15, -1.224646799147354045E-15, -1.000000000000000000 ) ) ;
#64 = CARTESIAN_POINT ( 'NONE',  ( 1.926362159436283024E-13, 6.756768900084961170E-14, 55.17320508075702179 ) ) ;
#65 = VERTEX_POINT ( 'NONE', #1 ) ;
#66 = PRODUCT_DEFINITION ( 'UNKNOWN', '', #35, #210 ) ;
#67 = DIRECTION ( 'NONE',  ( -4.244906816200470751E-30, 1.000000000000000000, -1.239088197126300333E-15 ) ) ;
#68 = CC_DESIGN_APPROVAL ( #231, ( #19 ) ) ;
#69 = VERTEX_POINT ( 'NONE', #51 ) ;
#70 = CYLINDRICAL_SURFACE ( 'NONE', #239, 4.899999999999962164 ) ;
#71 = CC_DESIGN_SECURITY_CLASSIFICATION ( #19, ( #35 ) ) ;
#72 = DATE_AND_TIME ( #232, #79 ) ;
#73 = EDGE_LOOP ( 'NONE', ( #111 ) ) ;
#74 = APPROVAL_ROLE ( '' ) ;
#75 = APPROVAL_DATE_TIME ( #248, #119 ) ;
#76 = EDGE_LOOP ( 'NONE', ( #168 ) ) ;
#77 = EDGE_LOOP ( 'NONE', ( #34 ) ) ;
#78 = DIRECTION ( 'NONE',  ( -4.275831445896958607E-31, -1.000000000000000000, -1.224646799147353207E-16 ) ) ;
#79 = LOCAL_TIME ( 11, 34, 17.00000000000000000, #214 ) ;
#80 = DIRECTION ( 'NONE',  ( 3.491481338843133355E-15, 1.224646799147354045E-15, 1.000000000000000000 ) ) ;
#81 = ADVANCED_FACE ( 'NONE', ( #82 ), #113, .T. ) ;
#82 = FACE_OUTER_BOUND ( 'NONE', #28, .T. ) ;
#83 = CARTESIAN_POINT ( 'NONE',  ( 4.987871477276600570E-15, 1.749509805837634143E-15, 1.428583169494837213 ) ) ;
#84 = CIRCLE ( 'NONE', #261, 4.999999999999999112 ) ;
#85 = EDGE_CURVE ( 'NONE', #228, #228, #118, .T. ) ;
#86 = FACE_OUTER_BOUND ( 'NONE', #151, .T. ) ;
#87 = CARTESIAN_POINT ( 'NONE',  ( 1.920314736363723472E-13, 4.899999999999995026, 55.00000000000000000 ) ) ;
#88 = ADVANCED_FACE ( 'NONE', ( #17, #116 ), #29, .T. ) ;
#89 = PERSON ( 'UNSPECIFIED', 'UNSPECIFIED', 'UNSPECIFIED', ('UNSPECIFIED'), ('UNSPECIFIED'), ('UNSPECIFIED') ) ;
#90 = PERSON_AND_ORGANIZATION ( #89, #41 ) ;
#91 = DIRECTION ( 'NONE',  ( -3.491481338843133355E-15, -1.224646799147354045E-15, -1.000000000000000000 ) ) ;
#92 = APPROVAL_PERSON_ORGANIZATION ( #7, #140, #74 ) ;
#93 = EDGE_CURVE ( 'NONE', #161, #161, #220, .T. ) ;
#94 = UNCERTAINTY_MEASURE_WITH_UNIT (LENGTH_MEASURE( 1.000000000000000082E-05 ), #202, 'distance_accuracy_value', 'NONE');
#95 = ORIENTED_EDGE ( 'NONE', *, *, #93, .T. ) ;
#96 = DIRECTION ( 'NONE',  ( 0.0000000000000000000, -1.000000000000000000, 0.0000000000000000000 ) ) ;
#97 = DIRECTION ( 'NONE',  ( -3.491481338843133355E-15, 1.224646799147353207E-16, -1.000000000000000000 ) ) ;
#98 = APPROVAL_PERSON_ORGANIZATION ( #90, #119, #211 ) ;
#99 = CARTESIAN_POINT ( 'NONE',  ( 3.072503578181957353E-13, -1.077689183249670724E-14, 88.00000000000000000 ) ) ;
#100 = FACE_OUTER_BOUND ( 'NONE', #251, .T. ) ;
#101 = EDGE_LOOP ( 'NONE', ( #187 ) ) ;
#102 = CARTESIAN_POINT ( 'NONE',  ( -3.491481338843130200E-15, -1.224646799147353059E-15, -0.9999999999999991118 ) ) ;
#103 = PERSON_AND_ORGANIZATION ( #89, #41 ) ;
#104 = CC_DESIGN_PERSON_AND_ORGANIZATION_ASSIGNMENT ( #213, #164, ( #35 ) ) ;
#105 = APPROVAL_DATE_TIME ( #27, #140 ) ;
#106 = EDGE_LOOP ( 'NONE', ( #10 ) ) ;
#107 = AXIS2_PLACEMENT_3D ( 'NONE', #102, #138, #67 ) ;
#108 = SHAPE_DEFINITION_REPRESENTATION ( #249, #18 ) ;
#109 = DATE_AND_TIME ( #167, #235 ) ;
#110 = EDGE_LOOP ( 'NONE', ( #125 ) ) ;
#111 = ORIENTED_EDGE ( 'NONE', *, *, #129, .T. ) ;
#112 = DIRECTION ( 'NONE',  ( -4.244906816200439923E-30, 1.000000000000000000, -1.239088197126291458E-15 ) ) ;
#113 = PLANE ( 'NONE',  #143 ) ;
#114 = AXIS2_PLACEMENT_3D ( 'NONE', #99, #132, #156 ) ;
#115 = FACE_OUTER_BOUND ( 'NONE', #77, .T. ) ;
#116 = FACE_OUTER_BOUND ( 'NONE', #110, .T. ) ;
#117 = DIRECTION ( 'NONE',  ( 0.0000000000000000000, 1.000000000000000000, 0.0000000000000000000 ) ) ;
#118 = CIRCLE ( 'NONE', #155, 4.000000000000001776 ) ;
#119 = APPROVAL ( #122, 'UNSPECIFIED' ) ;
#120 =( NAMED_UNIT ( * ) PLANE_ANGLE_UNIT ( ) SI_UNIT ( $, .RADIAN. ) );
#121 = MANIFOLD_SOLID_BREP ( 'Corps-Déplacer/Copier1[2]', #183 ) ;
#122 = APPROVAL_STATUS ( 'not_yet_approved' ) ;
#123 = ADVANCED_FACE ( 'NONE', ( #86, #22 ), #131, .T. ) ;
#124 = COORDINATED_UNIVERSAL_TIME_OFFSET ( 1, 0, .AHEAD. ) ;
#125 = ORIENTED_EDGE ( 'NONE', *, *, #159, .T. ) ;
#126 = EDGE_LOOP ( 'NONE', ( #95 ) ) ;
#127 = EDGE_LOOP ( 'NONE', ( #32 ) ) ;
#128 = CALENDAR_DATE ( 2021, 15, 10 ) ;
#129 = EDGE_CURVE ( 'NONE', #199, #199, #50, .T. ) ;
#130 = COORDINATED_UNIVERSAL_TIME_OFFSET ( 1, 0, .AHEAD. ) ;
#131 = CONICAL_SURFACE ( 'NONE', #163, 4.000000000000001776, 0.7853981633974473908 ) ;
#132 = DIRECTION ( 'NONE',  ( -3.491481338843133355E-15, 1.224646799147353207E-16, -1.000000000000000000 ) ) ;
#133 = ADVANCED_FACE ( 'NONE', ( #100 ), #219, .F. ) ;
#134 = DIRECTION ( 'NONE',  ( 3.491481338843133355E-15, 1.224646799147354045E-15, 1.000000000000000000 ) ) ;
#135 = CARTESIAN_POINT ( 'NONE',  ( 1.920314736363723724E-13, 6.735557395310448295E-14, 55.00000000000000711 ) ) ;
#136 = CARTESIAN_POINT ( 'NONE',  ( 1.745740669421566678E-13, 3.749399456654632525E-32, 50.00000000000000000 ) ) ;
#137 = VERTEX_POINT ( 'NONE', #2 ) ;
#138 = DIRECTION ( 'NONE',  ( -3.491481338843133355E-15, -1.224646799147354045E-15, -1.000000000000000000 ) ) ;
#139 = AXIS2_PLACEMENT_3D ( 'NONE', #192, #196, #78 ) ;
#140 = APPROVAL ( #53, 'UNSPECIFIED' ) ;
#141 = APPLICATION_PROTOCOL_DEFINITION ( 'international standard', 'config_control_design', 1994, #48 ) ;
#142 = CYLINDRICAL_SURFACE ( 'NONE', #107, 4.899999999999962164 ) ;
#143 = AXIS2_PLACEMENT_3D ( 'NONE', #136, #21, #255 ) ;
#144 = CONICAL_SURFACE ( 'NONE', #31, 3.924999999999998046, 1.221730476396032161 ) ;
#145 = COORDINATED_UNIVERSAL_TIME_OFFSET ( 1, 0, .AHEAD. ) ;
#146 = COORDINATED_UNIVERSAL_TIME_OFFSET ( 1, 0, .AHEAD. ) ;
#147 = APPROVAL_STATUS ( 'not_yet_approved' ) ;
#148 = AXIS2_PLACEMENT_3D ( 'NONE', #236, #80, #223 ) ;
#149 = PERSON_AND_ORGANIZATION ( #89, #41 ) ;
#150 = ORIENTED_EDGE ( 'NONE', *, *, #3, .T. ) ;
#151 = EDGE_LOOP ( 'NONE', ( #250 ) ) ;
#152 = CC_DESIGN_DATE_AND_TIME_ASSIGNMENT ( #13, #54, ( #66 ) ) ;
#153 = DIRECTION ( 'NONE',  ( -4.318008537734441967E-30, 1.000000000000000000, -1.215411352595215822E-15 ) ) ;
#154 = CYLINDRICAL_SURFACE ( 'NONE', #229, 4.999999999999999112 ) ;
#155 = AXIS2_PLACEMENT_3D ( 'NONE', #194, #42, #117 ) ;
#156 = DIRECTION ( 'NONE',  ( 0.0000000000000000000, 1.000000000000000000, 0.0000000000000000000 ) ) ;
#157 = APPROVAL_PERSON_ORGANIZATION ( #33, #231, #233 ) ;
#158 = CARTESIAN_POINT ( 'NONE',  ( 1.745740669421566678E-13, -4.899999999999900879, 50.00000000000000000 ) ) ;
#159 = EDGE_CURVE ( 'NONE', #69, #69, #257, .T. ) ;
#160 = DIRECTION ( 'NONE',  ( 3.491481338843133355E-15, 1.224646799147354045E-15, 1.000000000000000000 ) ) ;
#161 = VERTEX_POINT ( 'NONE', #87 ) ;
#162 = CARTESIAN_POINT ( 'NONE',  ( 3.107418391570388560E-13, 3.999999999999990674, 89.00000000000000000 ) ) ;
#163 = AXIS2_PLACEMENT_3D ( 'NONE', #60, #61, #173 ) ;
#164 = PERSON_AND_ORGANIZATION_ROLE ( 'creator' ) ;
#165 = EDGE_CURVE ( 'NONE', #137, #137, #225, .T. ) ;
#166 = LOCAL_TIME ( 11, 34, 17.00000000000000000, #145 ) ;
#167 = CALENDAR_DATE ( 2021, 15, 10 ) ;
#168 = ORIENTED_EDGE ( 'NONE', *, *, #45, .T. ) ;
#169 = FACE_OUTER_BOUND ( 'NONE', #76, .T. ) ;
#170 = DIRECTION ( 'NONE',  ( 4.275831445896958607E-31, 1.000000000000000000, 1.224646799147353207E-16 ) ) ;
#171 = DIRECTION ( 'NONE',  ( -3.491481338843133355E-15, -1.224646799147354045E-15, -1.000000000000000000 ) ) ;
#172 = CARTESIAN_POINT ( 'NONE',  ( 3.107418391570388560E-13, 2.999519565323699889E-32, 89.00000000000000000 ) ) ;
#173 = DIRECTION ( 'NONE',  ( 0.0000000000000000000, 1.000000000000000000, 0.0000000000000000000 ) ) ;
#174 = CC_DESIGN_PERSON_AND_ORGANIZATION_ASSIGNMENT ( #55, #253, ( #19 ) ) ;
#175 = FACE_OUTER_BOUND ( 'NONE', #126, .T. ) ;
#176 = MECHANICAL_CONTEXT ( 'NONE', #48, 'mechanical' ) ;
#177 = CARTESIAN_POINT ( 'NONE',  ( 0.0000000000000000000, 0.0000000000000000000, 0.0000000000000000000 ) ) ;
#178 = AXIS2_PLACEMENT_3D ( 'NONE', #237, #134, #217 ) ;
#179 = CC_DESIGN_APPROVAL ( #119, ( #66 ) ) ;
#180 = PERSON_AND_ORGANIZATION_ROLE ( 'design_owner' ) ;
#181 = DIRECTION ( 'NONE',  ( 0.0000000000000000000, -1.000000000000000000, 0.0000000000000000000 ) ) ;
#182 = SECURITY_CLASSIFICATION_LEVEL ( 'unclassified' ) ;
#183 = CLOSED_SHELL ( 'NONE', ( #81, #197, #88, #218 ) ) ;
#184 = CC_DESIGN_APPROVAL ( #140, ( #35 ) ) ;
#185 = PERSON_AND_ORGANIZATION_ROLE ( 'design_supplier' ) ;
#186 = ADVANCED_FACE ( 'NONE', ( #169, #259 ), #154, .T. ) ;
#187 = ORIENTED_EDGE ( 'NONE', *, *, #159, .F. ) ;
#188 = ORIENTED_EDGE ( 'NONE', *, *, #227, .F. ) ;
#189 = APPROVAL_DATE_TIME ( #109, #231 ) ;
#190 = EDGE_LOOP ( 'NONE', ( #188 ) ) ;
#191 = AXIS2_PLACEMENT_3D ( 'NONE', #177, #244, #205 ) ;
#192 = CARTESIAN_POINT ( 'NONE',  ( 1.745740669421566678E-13, 3.749399456654632525E-32, 50.00000000000000000 ) ) ;
#193 = CARTESIAN_POINT ( 'NONE',  ( 1.745740669421566678E-13, 6.123233995736771292E-14, 50.00000000000000000 ) ) ;
#194 = CARTESIAN_POINT ( 'NONE',  ( 3.107418391570388560E-13, -1.089935651241144239E-14, 89.00000000000000000 ) ) ;
#195 = ORIENTED_EDGE ( 'NONE', *, *, #165, .F. ) ;
#196 = DIRECTION ( 'NONE',  ( 3.491481338843133355E-15, -1.224646799147353207E-16, 1.000000000000000000 ) ) ;
#197 = ADVANCED_FACE ( 'NONE', ( #226 ), #144, .T. ) ;
#198 = LOCAL_TIME ( 11, 34, 17.00000000000000000, #146 ) ;
#199 = VERTEX_POINT ( 'NONE', #158 ) ;
#200 = CARTESIAN_POINT ( 'NONE',  ( 3.072503578181957353E-13, 4.999999999999990230, 88.00000000000000000 ) ) ;
#201 = DIRECTION ( 'NONE',  ( -4.244906816200470751E-30, 1.000000000000000000, -1.239088197126300333E-15 ) ) ;
#202 =( LENGTH_UNIT ( ) NAMED_UNIT ( * ) SI_UNIT ( .MILLI., .METRE. ) );
#203 = ADVANCED_FACE ( 'NONE', ( #175, #6 ), #70, .T. ) ;
#204 = AXIS2_PLACEMENT_3D ( 'NONE', #193, #97, #96 ) ;
#205 = DIRECTION ( 'NONE',  ( 1.000000000000000000, 0.0000000000000000000, 0.0000000000000000000 ) ) ;
#206 = CALENDAR_DATE ( 2021, 15, 10 ) ;
#207 = ORIENTED_EDGE ( 'NONE', *, *, #129, .F. ) ;
#208 = MANIFOLD_SOLID_BREP ( 'Corps-Déplacer/Copier1[1]', #12 ) ;
#209 =( GEOMETRIC_REPRESENTATION_CONTEXT ( 3 ) GLOBAL_UNCERTAINTY_ASSIGNED_CONTEXT ( ( #94 ) ) GLOBAL_UNIT_ASSIGNED_CONTEXT ( ( #202, #120, #242 ) ) REPRESENTATION_CONTEXT ( 'NONE', 'WORKASPACE' ) );
#210 = DESIGN_CONTEXT ( 'detailed design', #59, 'design' ) ;
#211 = APPROVAL_ROLE ( '' ) ;
#212 = ORIENTED_EDGE ( 'NONE', *, *, #45, .F. ) ;
#213 = PERSON_AND_ORGANIZATION ( #89, #41 ) ;
#214 = COORDINATED_UNIVERSAL_TIME_OFFSET ( 1, 0, .AHEAD. ) ;
#215 = AXIS2_PLACEMENT_3D ( 'NONE', #20, #44, #112 ) ;
#216 = ORIENTED_EDGE ( 'NONE', *, *, #93, .F. ) ;
#217 = DIRECTION ( 'NONE',  ( 4.482164234210355879E-30, -1.000000000000000000, 1.261617073437695206E-15 ) ) ;
#218 = ADVANCED_FACE ( 'NONE', ( #25, #47 ), #142, .T. ) ;
#219 = PLANE ( 'NONE',  #247 ) ;
#220 = CIRCLE ( 'NONE', #49, 4.899999999999926636 ) ;
#221 = CIRCLE ( 'NONE', #262, 4.899999999999962164 ) ;
#222 = FACE_OUTER_BOUND ( 'NONE', #56, .T. ) ;
#223 = DIRECTION ( 'NONE',  ( 4.244906816200439923E-30, -1.000000000000000000, 1.239088197126291458E-15 ) ) ;
#224 = VERTEX_POINT ( 'NONE', #4 ) ;
#225 = CIRCLE ( 'NONE', #8, 3.924999999999998046 ) ;
#226 = FACE_OUTER_BOUND ( 'NONE', #127, .T. ) ;
#227 = EDGE_CURVE ( 'NONE', #224, #224, #221, .T. ) ;
#228 = VERTEX_POINT ( 'NONE', #162 ) ;
#229 = AXIS2_PLACEMENT_3D ( 'NONE', #263, #260, #238 ) ;
#230 = CALENDAR_DATE ( 2021, 15, 10 ) ;
#231 = APPROVAL ( #147, 'UNSPECIFIED' ) ;
#232 = CALENDAR_DATE ( 2021, 15, 10 ) ;
#233 = APPROVAL_ROLE ( '' ) ;
#234 = PERSON_AND_ORGANIZATION_ROLE ( 'creator' ) ;
#235 = LOCAL_TIME ( 11, 34, 17.00000000000000000, #130 ) ;
#236 = CARTESIAN_POINT ( 'NONE',  ( 6.797913696651213848E-15, 2.384387153059304549E-15, 1.946999865364777760 ) ) ;
#237 = CARTESIAN_POINT ( 'NONE',  ( 1.956599274799053019E-13, 6.862826423957435931E-14, 56.03923048454132783 ) ) ;
#238 = DIRECTION ( 'NONE',  ( 4.275831445896958607E-31, 1.000000000000000000, 1.224646799147353207E-16 ) ) ;
#239 = AXIS2_PLACEMENT_3D ( 'NONE', #23, #91, #201 ) ;
#240 = PLANE ( 'NONE',  #139 ) ;
#241 = CARTESIAN_POINT ( 'NONE',  ( 4.987871477276600570E-15, 1.749509805837634143E-15, 1.428583169494837213 ) ) ;
#242 =( NAMED_UNIT ( * ) SI_UNIT ( $, .STERADIAN. ) SOLID_ANGLE_UNIT ( ) );
#243 = DIRECTION ( 'NONE',  ( 4.318008537734441967E-30, -1.000000000000000000, 1.215411352595215822E-15 ) ) ;
#244 = DIRECTION ( 'NONE',  ( 0.0000000000000000000, 0.0000000000000000000, 1.000000000000000000 ) ) ;
#245 = DIRECTION ( 'NONE',  ( -3.491481338843133355E-15, 1.224646799147353207E-16, -1.000000000000000000 ) ) ;
#246 = PRODUCT ( '62887', '62887', '', ( #176 ) ) ;
#247 = AXIS2_PLACEMENT_3D ( 'NONE', #172, #37, #170 ) ;
#248 = DATE_AND_TIME ( #206, #46 ) ;
#249 = PRODUCT_DEFINITION_SHAPE ( 'NONE', 'NONE',  #66 ) ;
#250 = ORIENTED_EDGE ( 'NONE', *, *, #3, .F. ) ;
#251 = EDGE_LOOP ( 'NONE', ( #14 ) ) ;
#252 = CC_DESIGN_PERSON_AND_ORGANIZATION_ASSIGNMENT ( #103, #180, ( #246 ) ) ;
#253 = PERSON_AND_ORGANIZATION_ROLE ( 'classification_officer' ) ;
#254 = EDGE_LOOP ( 'NONE', ( #150 ) ) ;
#255 = DIRECTION ( 'NONE',  ( -4.275831445896958607E-31, -1.000000000000000000, -1.224646799147353207E-16 ) ) ;
#256 = PRODUCT_RELATED_PRODUCT_CATEGORY ( 'detail', '', ( #246 ) ) ;
#257 = CIRCLE ( 'NONE', #215, 4.899999999999997691 ) ;
#258 = DIRECTION ( 'NONE',  ( 4.930380657631324484E-30, -1.000000000000000000, 1.387778780781445873E-15 ) ) ;
#259 = FACE_OUTER_BOUND ( 'NONE', #254, .T. ) ;
#260 = DIRECTION ( 'NONE',  ( -3.491481338843133355E-15, 1.224646799147353207E-16, -1.000000000000000000 ) ) ;
#261 = AXIS2_PLACEMENT_3D ( 'NONE', #64, #38, #258 ) ;
#262 = AXIS2_PLACEMENT_3D ( 'NONE', #26, #245, #181 ) ;
#263 = CARTESIAN_POINT ( 'NONE',  ( 0.0000000000000000000, 0.0000000000000000000, 0.0000000000000000000 ) ) ;
ENDSEC;
END-ISO-10303-21;
