ISO-10303-21;
HEADER;
FILE_DESCRIPTION (( 'STEP AP203' ),
    '1' );
FILE_NAME ('62886.step',
    '2021-10-15T09:34:17',
    ( '' ),
    ( '' ),
    'SwSTEP 2.0',
    'SolidWorks 2019',
    '' );
FILE_SCHEMA (( 'CONFIG_CONTROL_DESIGN' ));
ENDSEC;

DATA;
#1 = VERTEX_POINT ( 'NONE', #60 ) ;
#2 = CARTESIAN_POINT ( 'NONE',  ( 1.745740669421566678E-13, -4.762499999999900702, 50.00000000000000000 ) ) ;
#3 = CARTESIAN_POINT ( 'NONE',  ( 4.829022067172250132E-15, 1.693792933040257231E-15, 1.383086890211562059 ) ) ;
#4 = DIRECTION ( 'NONE',  ( 4.205705285381052693E-30, -1.000000000000000000, 1.229331597148919139E-15 ) ) ;
#5 = PRODUCT_DEFINITION_FORMATION_WITH_SPECIFIED_SOURCE ( 'ANY', '', #94, .NOT_KNOWN. ) ;
#6 = EDGE_LOOP ( 'NONE', ( #13 ) ) ;
#7 = APPROVAL_STATUS ( 'not_yet_approved' ) ;
#8 = ORIENTED_EDGE ( 'NONE', *, *, #162, .F. ) ;
#9 = LOCAL_TIME ( 11, 34, 17.00000000000000000, #198 ) ;
#10 = ADVANCED_FACE ( 'NONE', ( #121, #245 ), #158, .T. ) ;
#11 = CARTESIAN_POINT ( 'NONE',  ( 3.107418391570388560E-13, -1.089935651241144239E-14, 89.00000000000000000 ) ) ;
#12 = CC_DESIGN_APPROVAL ( #79, ( #175 ) ) ;
#13 = ORIENTED_EDGE ( 'NONE', *, *, #44, .T. ) ;
#14 = APPROVAL ( #235, 'UNSPECIFIED' ) ;
#15 = DIRECTION ( 'NONE',  ( 0.0000000000000000000, -1.000000000000000000, 0.0000000000000000000 ) ) ;
#16 = DIRECTION ( 'NONE',  ( 4.482164234210355879E-30, -1.000000000000000000, 1.261617073437695206E-15 ) ) ;
#17 = DIRECTION ( 'NONE',  ( 3.491481338843133355E-15, -1.224646799147353207E-16, 1.000000000000000000 ) ) ;
#18 = AXIS2_PLACEMENT_3D ( 'NONE', #40, #78, #57 ) ;
#19 = PERSON_AND_ORGANIZATION ( #141, #159 ) ;
#20 = EDGE_CURVE ( 'NONE', #1, #1, #199, .T. ) ;
#21 = AXIS2_PLACEMENT_3D ( 'NONE', #213, #102, #4 ) ;
#22 =( LENGTH_UNIT ( ) NAMED_UNIT ( * ) SI_UNIT ( .MILLI., .METRE. ) );
#23 = CALENDAR_DATE ( 2021, 15, 10 ) ;
#24 = UNCERTAINTY_MEASURE_WITH_UNIT (LENGTH_MEASURE( 1.000000000000000082E-05 ), #22, 'distance_accuracy_value', 'NONE');
#25 = CONICAL_SURFACE ( 'NONE', #169, 4.000000000000001776, 0.7853981633974473908 ) ;
#26 = PERSON_AND_ORGANIZATION ( #141, #159 ) ;
#27 = ORIENTED_EDGE ( 'NONE', *, *, #207, .T. ) ;
#28 = PERSON_AND_ORGANIZATION_ROLE ( 'classification_officer' ) ;
#29 = PERSON_AND_ORGANIZATION_ROLE ( 'creator' ) ;
#30 = EDGE_LOOP ( 'NONE', ( #133 ) ) ;
#31 = CIRCLE ( 'NONE', #237, 4.762499999999961986 ) ;
#32 = PERSON_AND_ORGANIZATION ( #141, #159 ) ;
#33 = CIRCLE ( 'NONE', #42, 4.762499999999961986 ) ;
#34 = EDGE_LOOP ( 'NONE', ( #201 ) ) ;
#35 = CC_DESIGN_PERSON_AND_ORGANIZATION_ASSIGNMENT ( #68, #29, ( #175 ) ) ;
#36 = EDGE_LOOP ( 'NONE', ( #8 ) ) ;
#37 = AXIS2_PLACEMENT_3D ( 'NONE', #104, #188, #211 ) ;
#38 = CARTESIAN_POINT ( 'NONE',  ( -3.491481338843130200E-15, -1.224646799147353059E-15, -0.9999999999999991118 ) ) ;
#39 = EDGE_LOOP ( 'NONE', ( #119 ) ) ;
#40 = CARTESIAN_POINT ( 'NONE',  ( 1.934677366161045940E-13, 6.785934719149897441E-14, 55.41136206679774290 ) ) ;
#41 = CYLINDRICAL_SURFACE ( 'NONE', #56, 4.762499999999961986 ) ;
#42 = AXIS2_PLACEMENT_3D ( 'NONE', #58, #136, #226 ) ;
#43 = APPROVAL_STATUS ( 'not_yet_approved' ) ;
#44 = EDGE_CURVE ( 'NONE', #168, #168, #33, .T. ) ;
#45 = FACE_OUTER_BOUND ( 'NONE', #87, .T. ) ;
#46 = DIRECTION ( 'NONE',  ( 0.0000000000000000000, 1.000000000000000000, 0.0000000000000000000 ) ) ;
#47 = CALENDAR_DATE ( 2021, 15, 10 ) ;
#48 = AXIS2_PLACEMENT_3D ( 'NONE', #163, #147, #215 ) ;
#49 = EDGE_LOOP ( 'NONE', ( #138 ) ) ;
#50 = APPROVAL_DATE_TIME ( #240, #135 ) ;
#51 = ORIENTED_EDGE ( 'NONE', *, *, #20, .F. ) ;
#52 = CC_DESIGN_PERSON_AND_ORGANIZATION_ASSIGNMENT ( #108, #210, ( #94 ) ) ;
#53 = AXIS2_PLACEMENT_3D ( 'NONE', #156, #242, #46 ) ;
#54 = CARTESIAN_POINT ( 'NONE',  ( -3.491481338843130200E-15, -1.224646799147353059E-15, -0.9999999999999991118 ) ) ;
#55 = DIRECTION ( 'NONE',  ( 0.0000000000000000000, 1.000000000000000000, 0.0000000000000000000 ) ) ;
#56 = AXIS2_PLACEMENT_3D ( 'NONE', #38, #262, #180 ) ;
#57 = DIRECTION ( 'NONE',  ( 4.930380657631324484E-30, -1.000000000000000000, 1.387778780781445873E-15 ) ) ;
#58 = CARTESIAN_POINT ( 'NONE',  ( 1.745740669421566678E-13, 6.123233995736771292E-14, 50.00000000000000000 ) ) ;
#59 = CARTESIAN_POINT ( 'NONE',  ( 1.964914481523816187E-13, 6.891992243022372202E-14, 56.27738747058204893 ) ) ;
#60 = CARTESIAN_POINT ( 'NONE',  ( 1.934677366161045940E-13, -4.999999999999931610, 55.41136206679775000 ) ) ;
#61 = CC_DESIGN_DATE_AND_TIME_ASSIGNMENT ( #170, #176, ( #175 ) ) ;
#62 = CARTESIAN_POINT ( 'NONE',  ( 3.107418391570388560E-13, 3.999999999999990674, 89.00000000000000000 ) ) ;
#63 = FACE_OUTER_BOUND ( 'NONE', #49, .T. ) ;
#64 = AXIS2_PLACEMENT_3D ( 'NONE', #59, #243, #16 ) ;
#65 = CARTESIAN_POINT ( 'NONE',  ( 1.920314736363723472E-13, 4.762499999999993960, 55.00000000000000000 ) ) ;
#66 = CC_DESIGN_SECURITY_CLASSIFICATION ( #190, ( #5 ) ) ;
#67 = ADVANCED_FACE ( 'NONE', ( #122, #223 ), #140, .T. ) ;
#68 = PERSON_AND_ORGANIZATION ( #141, #159 ) ;
#69 = APPROVAL_ROLE ( '' ) ;
#70 = DATE_TIME_ROLE ( 'classification_date' ) ;
#71 = EDGE_LOOP ( 'NONE', ( #115 ) ) ;
#72 = AXIS2_PLACEMENT_3D ( 'NONE', #161, #139, #249 ) ;
#73 = DIRECTION ( 'NONE',  ( -5.176252658930603679E-30, 1.000000000000000000, -1.456985596620962866E-15 ) ) ;
#74 = DIRECTION ( 'NONE',  ( -4.275831445896958607E-31, -1.000000000000000000, -1.224646799147353207E-16 ) ) ;
#75 = FACE_OUTER_BOUND ( 'NONE', #71, .T. ) ;
#76 = CC_DESIGN_PERSON_AND_ORGANIZATION_ASSIGNMENT ( #129, #131, ( #5 ) ) ;
#77 = DIRECTION ( 'NONE',  ( -3.491481338843133355E-15, -1.224646799147354045E-15, -1.000000000000000000 ) ) ;
#78 = DIRECTION ( 'NONE',  ( 3.491481338843133355E-15, 1.224646799147354045E-15, 1.000000000000000000 ) ) ;
#79 = APPROVAL ( #43, 'UNSPECIFIED' ) ;
#80 = DIRECTION ( 'NONE',  ( -4.275831445896958607E-31, -1.000000000000000000, -1.224646799147353207E-16 ) ) ;
#81 = LOCAL_TIME ( 11, 34, 17.00000000000000000, #238 ) ;
#82 = VERTEX_POINT ( 'NONE', #2 ) ;
#83 = DIRECTION ( 'NONE',  ( 3.491481338843133355E-15, -1.224646799147353207E-16, 1.000000000000000000 ) ) ;
#84 = PRODUCT_RELATED_PRODUCT_CATEGORY ( 'detail', '', ( #94 ) ) ;
#85 = CONICAL_SURFACE ( 'NONE', #241, 3.799999999999998046, 1.221730476396032161 ) ;
#86 = ORIENTED_EDGE ( 'NONE', *, *, #20, .T. ) ;
#87 = EDGE_LOOP ( 'NONE', ( #112 ) ) ;
#88 = EDGE_CURVE ( 'NONE', #82, #82, #31, .T. ) ;
#89 = SECURITY_CLASSIFICATION_LEVEL ( 'unclassified' ) ;
#90 = EDGE_LOOP ( 'NONE', ( #27 ) ) ;
#91 = CLOSED_SHELL ( 'NONE', ( #252, #229, #212, #67 ) ) ;
#92 = LOCAL_TIME ( 11, 34, 17.00000000000000000, #256 ) ;
#93 = EDGE_LOOP ( 'NONE', ( #239 ) ) ;
#94 = PRODUCT ( '62886', '62886', '', ( #234 ) ) ;
#95 = FACE_OUTER_BOUND ( 'NONE', #220, .T. ) ;
#96 = CIRCLE ( 'NONE', #53, 5.000000000000000888 ) ;
#97 = DIRECTION ( 'NONE',  ( 4.275831445896958607E-31, 1.000000000000000000, 1.224646799147353207E-16 ) ) ;
#98 = CARTESIAN_POINT ( 'NONE',  ( 1.920314736363723724E-13, 6.735557395310448295E-14, 55.00000000000000711 ) ) ;
#99 = ADVANCED_FACE ( 'NONE', ( #260 ), #101, .F. ) ;
#100 = DIRECTION ( 'NONE',  ( -3.491481338843133355E-15, -1.224646799147354045E-15, -1.000000000000000000 ) ) ;
#101 = PLANE ( 'NONE',  #209 ) ;
#102 = DIRECTION ( 'NONE',  ( 3.491481338843133355E-15, 1.224646799147354045E-15, 1.000000000000000000 ) ) ;
#103 = ADVANCED_FACE ( 'NONE', ( #187 ), #157, .F. ) ;
#104 = CARTESIAN_POINT ( 'NONE',  ( 4.829022067172250132E-15, 1.693792933040257231E-15, 1.383086890211562059 ) ) ;
#105 = VERTEX_POINT ( 'NONE', #231 ) ;
#106 = APPLICATION_PROTOCOL_DEFINITION ( 'international standard', 'config_control_design', 1994, #193 ) ;
#107 = CC_DESIGN_PERSON_AND_ORGANIZATION_ASSIGNMENT ( #32, #28, ( #190 ) ) ;
#108 = PERSON_AND_ORGANIZATION ( #141, #159 ) ;
#109 = DESIGN_CONTEXT ( 'detailed design', #193, 'design' ) ;
#110 = CALENDAR_DATE ( 2021, 15, 10 ) ;
#111 = LOCAL_TIME ( 11, 34, 17.00000000000000000, #151 ) ;
#112 = ORIENTED_EDGE ( 'NONE', *, *, #261, .T. ) ;
#113 = PERSON_AND_ORGANIZATION ( #141, #159 ) ;
#114 = ORIENTED_EDGE ( 'NONE', *, *, #207, .F. ) ;
#115 = ORIENTED_EDGE ( 'NONE', *, *, #44, .F. ) ;
#116 = AXIS2_PLACEMENT_3D ( 'NONE', #123, #124, #97 ) ;
#117 = APPROVAL_PERSON_ORGANIZATION ( #113, #14, #149 ) ;
#118 = MANIFOLD_SOLID_BREP ( 'Corps-Déplacer/Copier1[2]', #91 ) ;
#119 = ORIENTED_EDGE ( 'NONE', *, *, #137, .F. ) ;
#120 = AXIS2_PLACEMENT_3D ( 'NONE', #204, #100, #259 ) ;
#121 = FACE_OUTER_BOUND ( 'NONE', #152, .T. ) ;
#122 = FACE_OUTER_BOUND ( 'NONE', #172, .T. ) ;
#123 = CARTESIAN_POINT ( 'NONE',  ( 0.0000000000000000000, 0.0000000000000000000, 0.0000000000000000000 ) ) ;
#124 = DIRECTION ( 'NONE',  ( -3.491481338843133355E-15, 1.224646799147353207E-16, -1.000000000000000000 ) ) ;
#125 = DIRECTION ( 'NONE',  ( 3.491481338843133355E-15, 1.224646799147354045E-15, 1.000000000000000000 ) ) ;
#126 = VERTEX_POINT ( 'NONE', #65 ) ;
#127 = AXIS2_PLACEMENT_3D ( 'NONE', #145, #83, #80 ) ;
#128 = ADVANCED_FACE ( 'NONE', ( #225, #160 ), #134, .T. ) ;
#129 = PERSON_AND_ORGANIZATION ( #141, #159 ) ;
#130 = ADVANCED_FACE ( 'NONE', ( #143, #227 ), #25, .T. ) ;
#131 = PERSON_AND_ORGANIZATION_ROLE ( 'design_supplier' ) ;
#132 = COORDINATED_UNIVERSAL_TIME_OFFSET ( 1, 0, .AHEAD. ) ;
#133 = ORIENTED_EDGE ( 'NONE', *, *, #162, .T. ) ;
#134 = CONICAL_SURFACE ( 'NONE', #64, 5.499999999999924505, 0.5235987755982987046 ) ;
#135 = APPROVAL ( #7, 'UNSPECIFIED' ) ;
#136 = DIRECTION ( 'NONE',  ( -3.491481338843133355E-15, 1.224646799147353207E-16, -1.000000000000000000 ) ) ;
#137 = EDGE_CURVE ( 'NONE', #165, #165, #185, .T. ) ;
#138 = ORIENTED_EDGE ( 'NONE', *, *, #88, .F. ) ;
#139 = DIRECTION ( 'NONE',  ( -3.491481338843133355E-15, 1.224646799147353207E-16, -1.000000000000000000 ) ) ;
#140 = CYLINDRICAL_SURFACE ( 'NONE', #195, 4.762499999999961986 ) ;
#141 = PERSON ( 'UNSPECIFIED', 'UNSPECIFIED', 'UNSPECIFIED', ('UNSPECIFIED'), ('UNSPECIFIED'), ('UNSPECIFIED') ) ;
#142 = ADVANCED_FACE ( 'NONE', ( #95, #75 ), #41, .T. ) ;
#143 = FACE_OUTER_BOUND ( 'NONE', #171, .T. ) ;
#144 = APPROVAL_PERSON_ORGANIZATION ( #26, #135, #173 ) ;
#145 = CARTESIAN_POINT ( 'NONE',  ( 1.745740669421566678E-13, 3.749399456654632525E-32, 50.00000000000000000 ) ) ;
#146 = VERTEX_POINT ( 'NONE', #167 ) ;
#147 = DIRECTION ( 'NONE',  ( 0.0000000000000000000, 0.0000000000000000000, 1.000000000000000000 ) ) ;
#148 = DATE_AND_TIME ( #23, #203 ) ;
#149 = APPROVAL_ROLE ( '' ) ;
#150 = CIRCLE ( 'NONE', #155, 4.762499999999926459 ) ;
#151 = COORDINATED_UNIVERSAL_TIME_OFFSET ( 1, 0, .AHEAD. ) ;
#152 = EDGE_LOOP ( 'NONE', ( #86 ) ) ;
#153 = ADVANCED_BREP_SHAPE_REPRESENTATION ( '62886', ( #206, #118, #48 ), #164 ) ;
#154 = PERSON_AND_ORGANIZATION_ROLE ( 'creator' ) ;
#155 = AXIS2_PLACEMENT_3D ( 'NONE', #98, #183, #73 ) ;
#156 = CARTESIAN_POINT ( 'NONE',  ( 3.072503578181957353E-13, -1.077689183249670724E-14, 88.00000000000000000 ) ) ;
#157 = PLANE ( 'NONE',  #72 ) ;
#158 = CYLINDRICAL_SURFACE ( 'NONE', #116, 4.999999999999999112 ) ;
#159 = ORGANIZATION ( 'UNSPECIFIED', 'UNSPECIFIED', '' ) ;
#160 = FACE_OUTER_BOUND ( 'NONE', #221, .T. ) ;
#161 = CARTESIAN_POINT ( 'NONE',  ( 3.107418391570388560E-13, 2.999519565323699889E-32, 89.00000000000000000 ) ) ;
#162 = EDGE_CURVE ( 'NONE', #146, #146, #247, .T. ) ;
#163 = CARTESIAN_POINT ( 'NONE',  ( 0.0000000000000000000, 0.0000000000000000000, 0.0000000000000000000 ) ) ;
#164 =( GEOMETRIC_REPRESENTATION_CONTEXT ( 3 ) GLOBAL_UNCERTAINTY_ASSIGNED_CONTEXT ( ( #24 ) ) GLOBAL_UNIT_ASSIGNED_CONTEXT ( ( #22, #250, #254 ) ) REPRESENTATION_CONTEXT ( 'NONE', 'WORKASPACE' ) );
#165 = VERTEX_POINT ( 'NONE', #62 ) ;
#166 = APPLICATION_PROTOCOL_DEFINITION ( 'international standard', 'config_control_design', 1994, #179 ) ;
#167 = CARTESIAN_POINT ( 'NONE',  ( 6.615858617067679807E-15, 4.762500000000000178, 1.894857218185727721 ) ) ;
#168 = VERTEX_POINT ( 'NONE', #230 ) ;
#169 = AXIS2_PLACEMENT_3D ( 'NONE', #205, #263, #55 ) ;
#170 = DATE_AND_TIME ( #257, #9 ) ;
#171 = EDGE_LOOP ( 'NONE', ( #114 ) ) ;
#172 = EDGE_LOOP ( 'NONE', ( #177 ) ) ;
#173 = APPROVAL_ROLE ( '' ) ;
#174 = APPROVAL_PERSON_ORGANIZATION ( #19, #79, #69 ) ;
#175 = PRODUCT_DEFINITION ( 'UNKNOWN', '', #5, #109 ) ;
#176 = DATE_TIME_ROLE ( 'creation_date' ) ;
#177 = ORIENTED_EDGE ( 'NONE', *, *, #88, .T. ) ;
#178 = ORIENTED_EDGE ( 'NONE', *, *, #137, .T. ) ;
#179 = APPLICATION_CONTEXT ( 'configuration controlled 3d designs of mechanical parts and assemblies' ) ;
#180 = DIRECTION ( 'NONE',  ( -4.205705285381084222E-30, 1.000000000000000000, -1.229331597148928210E-15 ) ) ;
#181 = CC_DESIGN_APPROVAL ( #135, ( #190 ) ) ;
#182 = CARTESIAN_POINT ( 'NONE',  ( 1.745740669421566678E-13, 6.123233995736771292E-14, 50.00000000000000000 ) ) ;
#183 = DIRECTION ( 'NONE',  ( -3.491481338843133355E-15, -1.224646799147354045E-15, -1.000000000000000000 ) ) ;
#184 = DIRECTION ( 'NONE',  ( -3.491481338843133355E-15, 1.224646799147353207E-16, -1.000000000000000000 ) ) ;
#185 = CIRCLE ( 'NONE', #258, 4.000000000000001776 ) ;
#186 = CC_DESIGN_DATE_AND_TIME_ASSIGNMENT ( #217, #70, ( #190 ) ) ;
#187 = FACE_OUTER_BOUND ( 'NONE', #39, .T. ) ;
#188 = DIRECTION ( 'NONE',  ( -3.491481338843133355E-15, -1.224646799147354045E-15, -1.000000000000000000 ) ) ;
#189 = CARTESIAN_POINT ( 'NONE',  ( 3.072503578181957353E-13, 4.999999999999990230, 88.00000000000000000 ) ) ;
#190 = SECURITY_CLASSIFICATION ( '', '', #89 ) ;
#191 = EDGE_CURVE ( 'NONE', #126, #126, #150, .T. ) ;
#192 = DIRECTION ( 'NONE',  ( 4.257318824434944477E-30, -1.000000000000000000, 1.198328716957663377E-15 ) ) ;
#193 = APPLICATION_CONTEXT ( 'configuration controlled 3d designs of mechanical parts and assemblies' ) ;
#194 = PERSON_AND_ORGANIZATION ( #141, #159 ) ;
#195 = AXIS2_PLACEMENT_3D ( 'NONE', #54, #77, #202 ) ;
#196 = SHAPE_DEFINITION_REPRESENTATION ( #244, #153 ) ;
#197 = EDGE_LOOP ( 'NONE', ( #178 ) ) ;
#198 = COORDINATED_UNIVERSAL_TIME_OFFSET ( 1, 0, .AHEAD. ) ;
#199 = CIRCLE ( 'NONE', #18, 4.999999999999999112 ) ;
#200 = APPROVAL_DATE_TIME ( #148, #79 ) ;
#201 = ORIENTED_EDGE ( 'NONE', *, *, #191, .F. ) ;
#202 = DIRECTION ( 'NONE',  ( -4.205705285381084222E-30, 1.000000000000000000, -1.229331597148928210E-15 ) ) ;
#203 = LOCAL_TIME ( 11, 34, 17.00000000000000000, #132 ) ;
#204 = CARTESIAN_POINT ( 'NONE',  ( 6.615858617067700317E-15, 2.320530827092418162E-15, 1.894857218185733494 ) ) ;
#205 = CARTESIAN_POINT ( 'NONE',  ( 3.107418391570388560E-13, -1.089935651241144239E-14, 89.00000000000000000 ) ) ;
#206 = MANIFOLD_SOLID_BREP ( 'Corps-Déplacer/Copier1[1]', #246 ) ;
#207 = EDGE_CURVE ( 'NONE', #233, #233, #96, .T. ) ;
#208 = CARTESIAN_POINT ( 'NONE',  ( 1.745740669421566678E-13, 3.749399456654632525E-32, 50.00000000000000000 ) ) ;
#209 = AXIS2_PLACEMENT_3D ( 'NONE', #208, #17, #74 ) ;
#210 = PERSON_AND_ORGANIZATION_ROLE ( 'design_owner' ) ;
#211 = DIRECTION ( 'NONE',  ( -4.257318824434944477E-30, 1.000000000000000000, -1.198328716957663377E-15 ) ) ;
#212 = ADVANCED_FACE ( 'NONE', ( #251, #232 ), #214, .T. ) ;
#213 = CARTESIAN_POINT ( 'NONE',  ( 6.615858617067700317E-15, 2.320530827092418162E-15, 1.894857218185733494 ) ) ;
#214 = CONICAL_SURFACE ( 'NONE', #21, 4.762499999999997513, 1.082104136236485603 ) ;
#215 = DIRECTION ( 'NONE',  ( 1.000000000000000000, 0.0000000000000000000, 0.0000000000000000000 ) ) ;
#216 = PLANE ( 'NONE',  #127 ) ;
#217 = DATE_AND_TIME ( #255, #111 ) ;
#218 = APPROVAL_DATE_TIME ( #219, #14 ) ;
#219 = DATE_AND_TIME ( #47, #81 ) ;
#220 = EDGE_LOOP ( 'NONE', ( #222 ) ) ;
#221 = EDGE_LOOP ( 'NONE', ( #51 ) ) ;
#222 = ORIENTED_EDGE ( 'NONE', *, *, #191, .T. ) ;
#223 = FACE_OUTER_BOUND ( 'NONE', #36, .T. ) ;
#224 = DIRECTION ( 'NONE',  ( -3.491481338843133355E-15, 1.224646799147353207E-16, -1.000000000000000000 ) ) ;
#225 = FACE_BOUND ( 'NONE', #34, .T. ) ;
#226 = DIRECTION ( 'NONE',  ( 0.0000000000000000000, -1.000000000000000000, 0.0000000000000000000 ) ) ;
#227 = FACE_BOUND ( 'NONE', #197, .T. ) ;
#228 = CC_DESIGN_APPROVAL ( #14, ( #5 ) ) ;
#229 = ADVANCED_FACE ( 'NONE', ( #45 ), #85, .T. ) ;
#230 = CARTESIAN_POINT ( 'NONE',  ( 1.745740669421566678E-13, -4.762499999999900702, 50.00000000000000000 ) ) ;
#231 = CARTESIAN_POINT ( 'NONE',  ( 4.829022067172233566E-15, 3.799999999999999378, 1.383086890211557396 ) ) ;
#232 = FACE_OUTER_BOUND ( 'NONE', #30, .T. ) ;
#233 = VERTEX_POINT ( 'NONE', #189 ) ;
#234 = MECHANICAL_CONTEXT ( 'NONE', #179, 'mechanical' ) ;
#235 = APPROVAL_STATUS ( 'not_yet_approved' ) ;
#236 = CC_DESIGN_PERSON_AND_ORGANIZATION_ASSIGNMENT ( #194, #154, ( #5 ) ) ;
#237 = AXIS2_PLACEMENT_3D ( 'NONE', #182, #184, #15 ) ;
#238 = COORDINATED_UNIVERSAL_TIME_OFFSET ( 1, 0, .AHEAD. ) ;
#239 = ORIENTED_EDGE ( 'NONE', *, *, #261, .F. ) ;
#240 = DATE_AND_TIME ( #110, #92 ) ;
#241 = AXIS2_PLACEMENT_3D ( 'NONE', #3, #125, #192 ) ;
#242 = DIRECTION ( 'NONE',  ( -3.491481338843133355E-15, 1.224646799147353207E-16, -1.000000000000000000 ) ) ;
#243 = DIRECTION ( 'NONE',  ( 3.491481338843133355E-15, 1.224646799147354045E-15, 1.000000000000000000 ) ) ;
#244 = PRODUCT_DEFINITION_SHAPE ( 'NONE', 'NONE',  #175 ) ;
#245 = FACE_OUTER_BOUND ( 'NONE', #90, .T. ) ;
#246 = CLOSED_SHELL ( 'NONE', ( #10, #130, #103, #142, #128, #99 ) ) ;
#247 = CIRCLE ( 'NONE', #120, 4.762499999999997513 ) ;
#248 = DIRECTION ( 'NONE',  ( 0.0000000000000000000, 1.000000000000000000, 0.0000000000000000000 ) ) ;
#249 = DIRECTION ( 'NONE',  ( 4.275831445896958607E-31, 1.000000000000000000, 1.224646799147353207E-16 ) ) ;
#250 =( NAMED_UNIT ( * ) PLANE_ANGLE_UNIT ( ) SI_UNIT ( $, .RADIAN. ) );
#251 = FACE_BOUND ( 'NONE', #93, .T. ) ;
#252 = ADVANCED_FACE ( 'NONE', ( #63 ), #216, .T. ) ;
#253 = CIRCLE ( 'NONE', #37, 3.799999999999998046 ) ;
#254 =( NAMED_UNIT ( * ) SI_UNIT ( $, .STERADIAN. ) SOLID_ANGLE_UNIT ( ) );
#255 = CALENDAR_DATE ( 2021, 15, 10 ) ;
#256 = COORDINATED_UNIVERSAL_TIME_OFFSET ( 1, 0, .AHEAD. ) ;
#257 = CALENDAR_DATE ( 2021, 15, 10 ) ;
#258 = AXIS2_PLACEMENT_3D ( 'NONE', #11, #224, #248 ) ;
#259 = DIRECTION ( 'NONE',  ( -4.205705285381052693E-30, 1.000000000000000000, -1.229331597148919139E-15 ) ) ;
#260 = FACE_OUTER_BOUND ( 'NONE', #6, .T. ) ;
#261 = EDGE_CURVE ( 'NONE', #105, #105, #253, .T. ) ;
#262 = DIRECTION ( 'NONE',  ( -3.491481338843133355E-15, -1.224646799147354045E-15, -1.000000000000000000 ) ) ;
#263 = DIRECTION ( 'NONE',  ( -3.491481338843133355E-15, 1.224646799147353207E-16, -1.000000000000000000 ) ) ;
ENDSEC;
END-ISO-10303-21;
