ISO-10303-21;
HEADER;
FILE_DESCRIPTION (( 'STEP AP203' ),
    '1' );
FILE_NAME ('62885.step',
    '2021-10-15T09:34:16',
    ( '' ),
    ( '' ),
    'SwSTEP 2.0',
    'SolidWorks 2019',
    '' );
FILE_SCHEMA (( 'CONFIG_CONTROL_DESIGN' ));
ENDSEC;

DATA;
#1 = FACE_BOUND ( 'NONE', #197, .T. ) ;
#2 = CONICAL_SURFACE ( 'NONE', #155, 5.499999999999923617, 0.5235987755982991487 ) ;
#3 = VERTEX_POINT ( 'NONE', #84 ) ;
#4 = CARTESIAN_POINT ( 'NONE',  ( 4.574863011005274445E-15, 3.599999999999999645, 1.310292843358317416 ) ) ;
#5 = CARTESIAN_POINT ( 'NONE',  ( 0.0000000000000000000, 0.0000000000000000000, 0.0000000000000000000 ) ) ;
#6 = APPLICATION_PROTOCOL_DEFINITION ( 'international standard', 'config_control_design', 1994, #211 ) ;
#7 = DIRECTION ( 'NONE',  ( -3.491481338843133355E-15, 1.224646799147353207E-16, -1.000000000000000000 ) ) ;
#8 = APPROVAL_STATUS ( 'not_yet_approved' ) ;
#9 = CALENDAR_DATE ( 2021, 15, 10 ) ;
#10 = ORIENTED_EDGE ( 'NONE', *, *, #232, .T. ) ;
#11 = AXIS2_PLACEMENT_3D ( 'NONE', #40, #204, #25 ) ;
#12 = ADVANCED_FACE ( 'NONE', ( #93 ), #33, .T. ) ;
#13 = ORIENTED_EDGE ( 'NONE', *, *, #28, .T. ) ;
#14 = APPROVAL_ROLE ( '' ) ;
#15 = EDGE_LOOP ( 'NONE', ( #255 ) ) ;
#16 = AXIS2_PLACEMENT_3D ( 'NONE', #80, #177, #222 ) ;
#17 = APPROVAL_PERSON_ORGANIZATION ( #115, #43, #96 ) ;
#18 = MANIFOLD_SOLID_BREP ( 'Corps-Déplacer/Copier1[1]', #210 ) ;
#19 = EDGE_CURVE ( 'NONE', #3, #3, #261, .T. ) ;
#20 = CARTESIAN_POINT ( 'NONE',  ( 4.574863011005289433E-15, 1.604645936564454052E-15, 1.310292843358321857 ) ) ;
#21 = CARTESIAN_POINT ( 'NONE',  ( -3.491481338843130200E-15, -1.224646799147353059E-15, -0.9999999999999991118 ) ) ;
#22 = DIRECTION ( 'NONE',  ( -3.491481338843133355E-15, 1.224646799147353207E-16, -1.000000000000000000 ) ) ;
#23 = LOCAL_TIME ( 11, 34, 16.00000000000000000, #175 ) ;
#24 = CARTESIAN_POINT ( 'NONE',  ( -3.491481338843130200E-15, -1.224646799147353059E-15, -0.9999999999999991118 ) ) ;
#25 = DIRECTION ( 'NONE',  ( 4.279844320860526998E-30, -1.000000000000000000, 1.204669080539450182E-15 ) ) ;
#26 = DIRECTION ( 'NONE',  ( 0.0000000000000000000, 0.0000000000000000000, 1.000000000000000000 ) ) ;
#27 = CIRCLE ( 'NONE', #172, 4.000000000000001776 ) ;
#28 = EDGE_CURVE ( 'NONE', #209, #209, #103, .T. ) ;
#29 = LOCAL_TIME ( 11, 34, 16.00000000000000000, #35 ) ;
#30 = CARTESIAN_POINT ( 'NONE',  ( 6.245671213504912313E-15, 4.500000000000000000, 1.788831331853645734 ) ) ;
#31 = PERSON_AND_ORGANIZATION ( #119, #64 ) ;
#32 = DIRECTION ( 'NONE',  ( -3.491481338843133355E-15, 1.224646799147353207E-16, -1.000000000000000000 ) ) ;
#33 = CONICAL_SURFACE ( 'NONE', #98, 3.599999999999997868, 1.221730476396032161 ) ;
#34 = CC_DESIGN_APPROVAL ( #43, ( #256 ) ) ;
#35 = COORDINATED_UNIVERSAL_TIME_OFFSET ( 1, 0, .AHEAD. ) ;
#36 = CALENDAR_DATE ( 2021, 15, 10 ) ;
#37 = EDGE_LOOP ( 'NONE', ( #13 ) ) ;
#38 = CC_DESIGN_PERSON_AND_ORGANIZATION_ASSIGNMENT ( #67, #125, ( #202 ) ) ;
#39 = ORIENTED_EDGE ( 'NONE', *, *, #101, .T. ) ;
#40 = CARTESIAN_POINT ( 'NONE',  ( 6.245671213504931246E-15, 2.190686564769072343E-15, 1.788831331853651063 ) ) ;
#41 = DIRECTION ( 'NONE',  ( -4.275831445896958607E-31, -1.000000000000000000, -1.224646799147353207E-16 ) ) ;
#42 = DIRECTION ( 'NONE',  ( 3.491481338843133355E-15, -1.224646799147353207E-16, 1.000000000000000000 ) ) ;
#43 = APPROVAL ( #8, 'UNSPECIFIED' ) ;
#44 = AXIS2_PLACEMENT_3D ( 'NONE', #85, #32, #152 ) ;
#45 = FACE_OUTER_BOUND ( 'NONE', #37, .T. ) ;
#46 = DIRECTION ( 'NONE',  ( 3.491481338843133355E-15, 1.224646799147354045E-15, 1.000000000000000000 ) ) ;
#47 = ADVANCED_FACE ( 'NONE', ( #241, #120 ), #263, .T. ) ;
#48 = AXIS2_PLACEMENT_3D ( 'NONE', #61, #240, #144 ) ;
#49 = APPLICATION_PROTOCOL_DEFINITION ( 'international standard', 'config_control_design', 1994, #65 ) ;
#50 = CARTESIAN_POINT ( 'NONE',  ( 3.107418391570388560E-13, 3.999999999999990674, 89.00000000000000000 ) ) ;
#51 = ORIENTED_EDGE ( 'NONE', *, *, #247, .F. ) ;
#52 = CC_DESIGN_DATE_AND_TIME_ASSIGNMENT ( #53, #196, ( #202 ) ) ;
#53 = DATE_AND_TIME ( #36, #23 ) ;
#54 = EDGE_LOOP ( 'NONE', ( #250 ) ) ;
#55 = LOCAL_TIME ( 11, 34, 16.00000000000000000, #191 ) ;
#56 = ORIENTED_EDGE ( 'NONE', *, *, #70, .T. ) ;
#57 = DIRECTION ( 'NONE',  ( 4.482164234210356579E-30, -1.000000000000000000, 1.261617073437695403E-15 ) ) ;
#58 = CLOSED_SHELL ( 'NONE', ( #81, #12, #181, #138 ) ) ;
#59 = DIRECTION ( 'NONE',  ( -4.279844320860526998E-30, 1.000000000000000000, -1.204669080539450182E-15 ) ) ;
#60 = FACE_OUTER_BOUND ( 'NONE', #195, .T. ) ;
#61 = CARTESIAN_POINT ( 'NONE',  ( 4.574863011005289433E-15, 1.604645936564454052E-15, 1.310292843358321857 ) ) ;
#62 = PLANE ( 'NONE',  #16 ) ;
#63 = CALENDAR_DATE ( 2021, 15, 10 ) ;
#64 = ORGANIZATION ( 'UNSPECIFIED', 'UNSPECIFIED', '' ) ;
#65 = APPLICATION_CONTEXT ( 'configuration controlled 3d designs of mechanical parts and assemblies' ) ;
#66 = ORIENTED_EDGE ( 'NONE', *, *, #140, .F. ) ;
#67 = PERSON_AND_ORGANIZATION ( #119, #64 ) ;
#68 =( NAMED_UNIT ( * ) PLANE_ANGLE_UNIT ( ) SI_UNIT ( $, .RADIAN. ) );
#69 = AXIS2_PLACEMENT_3D ( 'NONE', #24, #105, #166 ) ;
#70 = EDGE_CURVE ( 'NONE', #205, #205, #149, .T. ) ;
#71 = PERSON_AND_ORGANIZATION_ROLE ( 'creator' ) ;
#72 = PERSON_AND_ORGANIZATION ( #119, #64 ) ;
#73 = ORIENTED_EDGE ( 'NONE', *, *, #28, .F. ) ;
#74 = EDGE_LOOP ( 'NONE', ( #73 ) ) ;
#75 = CARTESIAN_POINT ( 'NONE',  ( 1.745740669421566678E-13, 3.749399456654632525E-32, 50.00000000000000000 ) ) ;
#76 = CARTESIAN_POINT ( 'NONE',  ( 0.0000000000000000000, 0.0000000000000000000, 0.0000000000000000000 ) ) ;
#77 = AXIS2_PLACEMENT_3D ( 'NONE', #150, #154, #186 ) ;
#78 = CC_DESIGN_DATE_AND_TIME_ASSIGNMENT ( #158, #157, ( #256 ) ) ;
#79 = CARTESIAN_POINT ( 'NONE',  ( 1.980788967089272548E-13, 6.947672443055429372E-14, 56.73205080756888208 ) ) ;
#80 = CARTESIAN_POINT ( 'NONE',  ( 3.107418391570388560E-13, 2.999519565323699889E-32, 89.00000000000000000 ) ) ;
#81 = ADVANCED_FACE ( 'NONE', ( #242 ), #99, .T. ) ;
#82 = FACE_OUTER_BOUND ( 'NONE', #160, .T. ) ;
#83 = AXIS2_PLACEMENT_3D ( 'NONE', #75, #42, #143 ) ;
#84 = CARTESIAN_POINT ( 'NONE',  ( 3.072503578181957353E-13, 4.999999999999990230, 88.00000000000000000 ) ) ;
#85 = CARTESIAN_POINT ( 'NONE',  ( 1.745740669421566678E-13, 6.123233995736771292E-14, 50.00000000000000000 ) ) ;
#86 = ORIENTED_EDGE ( 'NONE', *, *, #258, .F. ) ;
#87 = ADVANCED_FACE ( 'NONE', ( #82, #162 ), #200, .T. ) ;
#88 = APPROVAL_ROLE ( '' ) ;
#89 = DIRECTION ( 'NONE',  ( 0.0000000000000000000, 1.000000000000000000, 0.0000000000000000000 ) ) ;
#90 = ADVANCED_FACE ( 'NONE', ( #60 ), #62, .F. ) ;
#91 = CALENDAR_DATE ( 2021, 15, 10 ) ;
#92 = AXIS2_PLACEMENT_3D ( 'NONE', #102, #262, #227 ) ;
#93 = FACE_OUTER_BOUND ( 'NONE', #170, .T. ) ;
#94 = ADVANCED_FACE ( 'NONE', ( #122 ), #146, .F. ) ;
#95 = ORIENTED_EDGE ( 'NONE', *, *, #70, .F. ) ;
#96 = APPROVAL_ROLE ( '' ) ;
#97 = ORIENTED_EDGE ( 'NONE', *, *, #19, .F. ) ;
#98 = AXIS2_PLACEMENT_3D ( 'NONE', #20, #46, #164 ) ;
#99 = PLANE ( 'NONE',  #83 ) ;
#100 = DIRECTION ( 'NONE',  ( -3.491481338843133355E-15, 1.224646799147353207E-16, -1.000000000000000000 ) ) ;
#101 = EDGE_CURVE ( 'NONE', #148, #148, #188, .T. ) ;
#102 = CARTESIAN_POINT ( 'NONE',  ( 1.950551851726502554E-13, 6.841614919182954610E-14, 55.86602540378457604 ) ) ;
#103 = CIRCLE ( 'NONE', #123, 4.499999999999997335 ) ;
#104 = DIRECTION ( 'NONE',  ( 0.0000000000000000000, 1.000000000000000000, 0.0000000000000000000 ) ) ;
#105 = DIRECTION ( 'NONE',  ( -3.491481338843133355E-15, -1.224646799147354045E-15, -1.000000000000000000 ) ) ;
#106 = PERSON_AND_ORGANIZATION ( #119, #64 ) ;
#107 = CONICAL_SURFACE ( 'NONE', #11, 4.499999999999997335, 1.082104136236485381 ) ;
#108 =( NAMED_UNIT ( * ) SI_UNIT ( $, .STERADIAN. ) SOLID_ANGLE_UNIT ( ) );
#109 = ADVANCED_FACE ( 'NONE', ( #198, #161 ), #2, .T. ) ;
#110 = DESIGN_CONTEXT ( 'detailed design', #211, 'design' ) ;
#111 = PRODUCT_DEFINITION_FORMATION_WITH_SPECIFIED_SOURCE ( 'ANY', '', #237, .NOT_KNOWN. ) ;
#112 = VERTEX_POINT ( 'NONE', #50 ) ;
#113 = PERSON_AND_ORGANIZATION_ROLE ( 'design_supplier' ) ;
#114 = APPROVAL_STATUS ( 'not_yet_approved' ) ;
#115 = PERSON_AND_ORGANIZATION ( #119, #64 ) ;
#116 = ORIENTED_EDGE ( 'NONE', *, *, #258, .T. ) ;
#117 = EDGE_LOOP ( 'NONE', ( #134 ) ) ;
#118 = EDGE_LOOP ( 'NONE', ( #95 ) ) ;
#119 = PERSON ( 'UNSPECIFIED', 'UNSPECIFIED', 'UNSPECIFIED', ('UNSPECIFIED'), ('UNSPECIFIED'), ('UNSPECIFIED') ) ;
#120 = FACE_OUTER_BOUND ( 'NONE', #54, .T. ) ;
#121 = DIRECTION ( 'NONE',  ( 0.0000000000000000000, -1.000000000000000000, 0.0000000000000000000 ) ) ;
#122 = FACE_OUTER_BOUND ( 'NONE', #117, .T. ) ;
#123 = AXIS2_PLACEMENT_3D ( 'NONE', #182, #259, #59 ) ;
#124 = DIRECTION ( 'NONE',  ( -4.279844320860560630E-30, 1.000000000000000000, -1.204669080539459648E-15 ) ) ;
#125 = PERSON_AND_ORGANIZATION_ROLE ( 'creator' ) ;
#126 = CIRCLE ( 'NONE', #48, 3.599999999999997868 ) ;
#127 = CC_DESIGN_PERSON_AND_ORGANIZATION_ASSIGNMENT ( #72, #137, ( #256 ) ) ;
#128 = CARTESIAN_POINT ( 'NONE',  ( 3.107418391570388560E-13, -1.089935651241144239E-14, 89.00000000000000000 ) ) ;
#129 = MECHANICAL_CONTEXT ( 'NONE', #65, 'mechanical' ) ;
#130 = CARTESIAN_POINT ( 'NONE',  ( 1.745740669421566678E-13, -4.499999999999899636, 50.00000000000000000 ) ) ;
#131 = CC_DESIGN_PERSON_AND_ORGANIZATION_ASSIGNMENT ( #31, #187, ( #237 ) ) ;
#132 = AXIS2_PLACEMENT_3D ( 'NONE', #21, #224, #124 ) ;
#133 = PERSON_AND_ORGANIZATION ( #119, #64 ) ;
#134 = ORIENTED_EDGE ( 'NONE', *, *, #247, .T. ) ;
#135 = APPROVAL_DATE_TIME ( #217, #174 ) ;
#136 = CC_DESIGN_APPROVAL ( #147, ( #202 ) ) ;
#137 = PERSON_AND_ORGANIZATION_ROLE ( 'classification_officer' ) ;
#138 = ADVANCED_FACE ( 'NONE', ( #203, #141 ), #221, .T. ) ;
#139 = EDGE_LOOP ( 'NONE', ( #56 ) ) ;
#140 = EDGE_CURVE ( 'NONE', #246, #246, #126, .T. ) ;
#141 = FACE_OUTER_BOUND ( 'NONE', #74, .T. ) ;
#142 = CARTESIAN_POINT ( 'NONE',  ( 1.745740669421566678E-13, 3.749399456654632525E-32, 50.00000000000000000 ) ) ;
#143 = DIRECTION ( 'NONE',  ( -4.275831445896958607E-31, -1.000000000000000000, -1.224646799147353207E-16 ) ) ;
#144 = DIRECTION ( 'NONE',  ( -4.279844320860526998E-30, 1.000000000000000000, -1.204669080539450182E-15 ) ) ;
#145 = LOCAL_TIME ( 11, 34, 16.00000000000000000, #213 ) ;
#146 = PLANE ( 'NONE',  #231 ) ;
#147 = APPROVAL ( #184, 'UNSPECIFIED' ) ;
#148 = VERTEX_POINT ( 'NONE', #248 ) ;
#149 = CIRCLE ( 'NONE', #243, 4.499999999999961808 ) ;
#150 = CARTESIAN_POINT ( 'NONE',  ( 1.920314736363723724E-13, 6.735557395310448295E-14, 55.00000000000000711 ) ) ;
#151 = ORIENTED_EDGE ( 'NONE', *, *, #140, .T. ) ;
#152 = DIRECTION ( 'NONE',  ( 0.0000000000000000000, -1.000000000000000000, 0.0000000000000000000 ) ) ;
#153 = CC_DESIGN_PERSON_AND_ORGANIZATION_ASSIGNMENT ( #254, #71, ( #111 ) ) ;
#154 = DIRECTION ( 'NONE',  ( -3.491481338843133355E-15, -1.224646799147354045E-15, -1.000000000000000000 ) ) ;
#155 = AXIS2_PLACEMENT_3D ( 'NONE', #79, #238, #57 ) ;
#156 = PERSON_AND_ORGANIZATION ( #119, #64 ) ;
#157 = DATE_TIME_ROLE ( 'classification_date' ) ;
#158 = DATE_AND_TIME ( #91, #145 ) ;
#159 = SECURITY_CLASSIFICATION_LEVEL ( 'unclassified' ) ;
#160 = EDGE_LOOP ( 'NONE', ( #116 ) ) ;
#161 = FACE_OUTER_BOUND ( 'NONE', #15, .T. ) ;
#162 = FACE_OUTER_BOUND ( 'NONE', #234, .T. ) ;
#163 = AXIS2_PLACEMENT_3D ( 'NONE', #76, #100, #178 ) ;
#164 = DIRECTION ( 'NONE',  ( 4.279844320860526998E-30, -1.000000000000000000, 1.204669080539450182E-15 ) ) ;
#165 = CC_DESIGN_PERSON_AND_ORGANIZATION_ASSIGNMENT ( #133, #113, ( #111 ) ) ;
#166 = DIRECTION ( 'NONE',  ( -4.279844320860560630E-30, 1.000000000000000000, -1.204669080539459648E-15 ) ) ;
#167 = FACE_OUTER_BOUND ( 'NONE', #219, .T. ) ;
#168 = DIRECTION ( 'NONE',  ( 1.000000000000000000, 0.0000000000000000000, 0.0000000000000000000 ) ) ;
#169 = APPROVAL_PERSON_ORGANIZATION ( #156, #174, #14 ) ;
#170 = EDGE_LOOP ( 'NONE', ( #151 ) ) ;
#171 = DATE_AND_TIME ( #63, #249 ) ;
#172 = AXIS2_PLACEMENT_3D ( 'NONE', #206, #7, #89 ) ;
#173 = APPROVAL_DATE_TIME ( #190, #43 ) ;
#174 = APPROVAL ( #114, 'UNSPECIFIED' ) ;
#175 = COORDINATED_UNIVERSAL_TIME_OFFSET ( 1, 0, .AHEAD. ) ;
#176 = EDGE_LOOP ( 'NONE', ( #86 ) ) ;
#177 = DIRECTION ( 'NONE',  ( -3.491481338843133355E-15, 1.224646799147353207E-16, -1.000000000000000000 ) ) ;
#178 = DIRECTION ( 'NONE',  ( 4.275831445896958607E-31, 1.000000000000000000, 1.224646799147353207E-16 ) ) ;
#179 = AXIS2_PLACEMENT_3D ( 'NONE', #5, #26, #168 ) ;
#180 = CARTESIAN_POINT ( 'NONE',  ( 1.745740669421566678E-13, 6.123233995736771292E-14, 50.00000000000000000 ) ) ;
#181 = ADVANCED_FACE ( 'NONE', ( #1, #45 ), #107, .T. ) ;
#182 = CARTESIAN_POINT ( 'NONE',  ( 6.245671213504931246E-15, 2.190686564769072343E-15, 1.788831331853651063 ) ) ;
#183 = DIRECTION ( 'NONE',  ( 3.491481338843133355E-15, -1.224646799147353207E-16, 1.000000000000000000 ) ) ;
#184 = APPROVAL_STATUS ( 'not_yet_approved' ) ;
#185 = CARTESIAN_POINT ( 'NONE',  ( 1.745740669421566678E-13, -4.499999999999899636, 50.00000000000000000 ) ) ;
#186 = DIRECTION ( 'NONE',  ( -5.478200730701560710E-30, 1.000000000000000000, -1.541976423090520482E-15 ) ) ;
#187 = PERSON_AND_ORGANIZATION_ROLE ( 'design_owner' ) ;
#188 = CIRCLE ( 'NONE', #92, 4.999999999999999112 ) ;
#189 =( LENGTH_UNIT ( ) NAMED_UNIT ( * ) SI_UNIT ( .MILLI., .METRE. ) );
#190 = DATE_AND_TIME ( #194, #29 ) ;
#191 = COORDINATED_UNIVERSAL_TIME_OFFSET ( 1, 0, .AHEAD. ) ;
#192 = MANIFOLD_SOLID_BREP ( 'Corps-Déplacer/Copier1[2]', #58 ) ;
#193 = CIRCLE ( 'NONE', #44, 4.499999999999961808 ) ;
#194 = CALENDAR_DATE ( 2021, 15, 10 ) ;
#195 = EDGE_LOOP ( 'NONE', ( #236 ) ) ;
#196 = DATE_TIME_ROLE ( 'creation_date' ) ;
#197 = EDGE_LOOP ( 'NONE', ( #66 ) ) ;
#198 = FACE_BOUND ( 'NONE', #176, .T. ) ;
#199 = PRODUCT_DEFINITION_SHAPE ( 'NONE', 'NONE',  #202 ) ;
#200 = CYLINDRICAL_SURFACE ( 'NONE', #132, 4.499999999999961808 ) ;
#201 = CARTESIAN_POINT ( 'NONE',  ( 3.072503578181957353E-13, -1.077689183249670724E-14, 88.00000000000000000 ) ) ;
#202 = PRODUCT_DEFINITION ( 'UNKNOWN', '', #111, #110 ) ;
#203 = FACE_OUTER_BOUND ( 'NONE', #139, .T. ) ;
#204 = DIRECTION ( 'NONE',  ( 3.491481338843133355E-15, 1.224646799147354045E-15, 1.000000000000000000 ) ) ;
#205 = VERTEX_POINT ( 'NONE', #185 ) ;
#206 = CARTESIAN_POINT ( 'NONE',  ( 3.107418391570388560E-13, -1.089935651241144239E-14, 89.00000000000000000 ) ) ;
#207 = DIRECTION ( 'NONE',  ( 0.0000000000000000000, 1.000000000000000000, 0.0000000000000000000 ) ) ;
#208 = VERTEX_POINT ( 'NONE', #130 ) ;
#209 = VERTEX_POINT ( 'NONE', #30 ) ;
#210 = CLOSED_SHELL ( 'NONE', ( #47, #226, #90, #87, #109, #94 ) ) ;
#211 = APPLICATION_CONTEXT ( 'configuration controlled 3d designs of mechanical parts and assemblies' ) ;
#212 = UNCERTAINTY_MEASURE_WITH_UNIT (LENGTH_MEASURE( 1.000000000000000082E-05 ), #189, 'distance_accuracy_value', 'NONE');
#213 = COORDINATED_UNIVERSAL_TIME_OFFSET ( 1, 0, .AHEAD. ) ;
#214 = EDGE_LOOP ( 'NONE', ( #10 ) ) ;
#215 = SHAPE_DEFINITION_REPRESENTATION ( #199, #228 ) ;
#216 = APPROVAL_PERSON_ORGANIZATION ( #106, #147, #88 ) ;
#217 = DATE_AND_TIME ( #9, #55 ) ;
#218 = EDGE_LOOP ( 'NONE', ( #39 ) ) ;
#219 = EDGE_LOOP ( 'NONE', ( #97 ) ) ;
#220 = CONICAL_SURFACE ( 'NONE', #253, 4.000000000000001776, 0.7853981633974473908 ) ;
#221 = CYLINDRICAL_SURFACE ( 'NONE', #69, 4.499999999999961808 ) ;
#222 = DIRECTION ( 'NONE',  ( 4.275831445896958607E-31, 1.000000000000000000, 1.224646799147353207E-16 ) ) ;
#223 = CIRCLE ( 'NONE', #77, 4.499999999999926281 ) ;
#224 = DIRECTION ( 'NONE',  ( -3.491481338843133355E-15, -1.224646799147354045E-15, -1.000000000000000000 ) ) ;
#225 = CC_DESIGN_SECURITY_CLASSIFICATION ( #256, ( #111 ) ) ;
#226 = ADVANCED_FACE ( 'NONE', ( #167, #244 ), #220, .T. ) ;
#227 = DIRECTION ( 'NONE',  ( 4.930380657631324484E-30, -1.000000000000000000, 1.387778780781445873E-15 ) ) ;
#228 = ADVANCED_BREP_SHAPE_REPRESENTATION ( '62885', ( #18, #192, #179 ), #260 ) ;
#229 = VERTEX_POINT ( 'NONE', #230 ) ;
#230 = CARTESIAN_POINT ( 'NONE',  ( 1.920314736363723472E-13, 4.499999999999993783, 55.00000000000000000 ) ) ;
#231 = AXIS2_PLACEMENT_3D ( 'NONE', #142, #183, #41 ) ;
#232 = EDGE_CURVE ( 'NONE', #112, #112, #27, .T. ) ;
#233 = PRODUCT_RELATED_PRODUCT_CATEGORY ( 'detail', '', ( #237 ) ) ;
#234 = EDGE_LOOP ( 'NONE', ( #51 ) ) ;
#235 = CC_DESIGN_APPROVAL ( #174, ( #111 ) ) ;
#236 = ORIENTED_EDGE ( 'NONE', *, *, #232, .F. ) ;
#237 = PRODUCT ( '62885', '62885', '', ( #129 ) ) ;
#238 = DIRECTION ( 'NONE',  ( 3.491481338843133355E-15, 1.224646799147354045E-15, 1.000000000000000000 ) ) ;
#239 = AXIS2_PLACEMENT_3D ( 'NONE', #201, #22, #104 ) ;
#240 = DIRECTION ( 'NONE',  ( -3.491481338843133355E-15, -1.224646799147354045E-15, -1.000000000000000000 ) ) ;
#241 = FACE_OUTER_BOUND ( 'NONE', #218, .T. ) ;
#242 = FACE_OUTER_BOUND ( 'NONE', #118, .T. ) ;
#243 = AXIS2_PLACEMENT_3D ( 'NONE', #180, #257, #121 ) ;
#244 = FACE_BOUND ( 'NONE', #214, .T. ) ;
#245 = COORDINATED_UNIVERSAL_TIME_OFFSET ( 1, 0, .AHEAD. ) ;
#246 = VERTEX_POINT ( 'NONE', #4 ) ;
#247 = EDGE_CURVE ( 'NONE', #208, #208, #193, .T. ) ;
#248 = CARTESIAN_POINT ( 'NONE',  ( 1.950551851726502806E-13, -4.999999999999930722, 55.86602540378458315 ) ) ;
#249 = LOCAL_TIME ( 11, 34, 16.00000000000000000, #245 ) ;
#250 = ORIENTED_EDGE ( 'NONE', *, *, #19, .T. ) ;
#251 = APPROVAL_DATE_TIME ( #171, #147 ) ;
#252 = DIRECTION ( 'NONE',  ( -3.491481338843133355E-15, 1.224646799147353207E-16, -1.000000000000000000 ) ) ;
#253 = AXIS2_PLACEMENT_3D ( 'NONE', #128, #252, #207 ) ;
#254 = PERSON_AND_ORGANIZATION ( #119, #64 ) ;
#255 = ORIENTED_EDGE ( 'NONE', *, *, #101, .F. ) ;
#256 = SECURITY_CLASSIFICATION ( '', '', #159 ) ;
#257 = DIRECTION ( 'NONE',  ( -3.491481338843133355E-15, 1.224646799147353207E-16, -1.000000000000000000 ) ) ;
#258 = EDGE_CURVE ( 'NONE', #229, #229, #223, .T. ) ;
#259 = DIRECTION ( 'NONE',  ( -3.491481338843133355E-15, -1.224646799147354045E-15, -1.000000000000000000 ) ) ;
#260 =( GEOMETRIC_REPRESENTATION_CONTEXT ( 3 ) GLOBAL_UNCERTAINTY_ASSIGNED_CONTEXT ( ( #212 ) ) GLOBAL_UNIT_ASSIGNED_CONTEXT ( ( #189, #68, #108 ) ) REPRESENTATION_CONTEXT ( 'NONE', 'WORKASPACE' ) );
#261 = CIRCLE ( 'NONE', #239, 5.000000000000000888 ) ;
#262 = DIRECTION ( 'NONE',  ( 3.491481338843133355E-15, 1.224646799147354045E-15, 1.000000000000000000 ) ) ;
#263 = CYLINDRICAL_SURFACE ( 'NONE', #163, 4.999999999999999112 ) ;
ENDSEC;
END-ISO-10303-21;
