ISO-10303-21;
HEADER;
FILE_DESCRIPTION (( 'STEP AP203' ),
    '1' );
FILE_NAME ('62884.step',
    '2021-10-15T09:34:16',
    ( '' ),
    ( '' ),
    'SwSTEP 2.0',
    'SolidWorks 2019',
    '' );
FILE_SCHEMA (( 'CONFIG_CONTROL_DESIGN' ));
ENDSEC;

DATA;
#1 = APPROVAL_DATE_TIME ( #109, #84 ) ;
#2 = LOCAL_TIME ( 11, 34, 16.00000000000000000, #85 ) ;
#3 = VERTEX_POINT ( 'NONE', #67 ) ;
#4 = UNCERTAINTY_MEASURE_WITH_UNIT (LENGTH_MEASURE( 1.000000000000000082E-05 ), #51, 'distance_accuracy_value', 'NONE');
#5 = FACE_OUTER_BOUND ( 'NONE', #33, .T. ) ;
#6 = CARTESIAN_POINT ( 'NONE',  ( 3.072503578181957353E-13, 4.999999999999990230, 88.00000000000000000 ) ) ;
#7 = CLOSED_SHELL ( 'NONE', ( #192, #145, #8, #58, #30, #88 ) ) ;
#8 = ADVANCED_FACE ( 'NONE', ( #101 ), #172, .F. ) ;
#9 = DIRECTION ( 'NONE',  ( 3.491481338843133355E-15, -1.224646799147353207E-16, 1.000000000000000000 ) ) ;
#10 = FACE_OUTER_BOUND ( 'NONE', #238, .T. ) ;
#11 = EDGE_LOOP ( 'NONE', ( #76 ) ) ;
#12 = AXIS2_PLACEMENT_3D ( 'NONE', #42, #203, #168 ) ;
#13 = EDGE_LOOP ( 'NONE', ( #105 ) ) ;
#14 = EDGE_LOOP ( 'NONE', ( #55 ) ) ;
#15 = ORIENTED_EDGE ( 'NONE', *, *, #211, .F. ) ;
#16 = AXIS2_PLACEMENT_3D ( 'NONE', #92, #246, #164 ) ;
#17 = ORIENTED_EDGE ( 'NONE', *, *, #48, .T. ) ;
#18 = APPROVAL_PERSON_ORGANIZATION ( #19, #244, #241 ) ;
#19 = PERSON_AND_ORGANIZATION ( #255, #190 ) ;
#20 = DATE_TIME_ROLE ( 'classification_date' ) ;
#21 = CIRCLE ( 'NONE', #167, 4.000000000000001776 ) ;
#22 = SECURITY_CLASSIFICATION_LEVEL ( 'unclassified' ) ;
#23 = DIRECTION ( 'NONE',  ( -3.491481338843133355E-15, 1.224646799147353207E-16, -1.000000000000000000 ) ) ;
#24 = AXIS2_PLACEMENT_3D ( 'NONE', #115, #9, #209 ) ;
#25 = CARTESIAN_POINT ( 'NONE',  ( 3.107418391570388560E-13, -1.089935651241144239E-14, 89.00000000000000000 ) ) ;
#26 = VERTEX_POINT ( 'NONE', #165 ) ;
#27 = DIRECTION ( 'NONE',  ( -3.491481338843133355E-15, 1.224646799147353207E-16, -1.000000000000000000 ) ) ;
#28 = CYLINDRICAL_SURFACE ( 'NONE', #213, 4.364999999999962021 ) ;
#29 = DIRECTION ( 'NONE',  ( 0.0000000000000000000, 1.000000000000000000, 0.0000000000000000000 ) ) ;
#30 = ADVANCED_FACE ( 'NONE', ( #137, #237 ), #142, .T. ) ;
#31 = DIRECTION ( 'NONE',  ( 0.0000000000000000000, 0.0000000000000000000, 1.000000000000000000 ) ) ;
#32 = APPROVAL ( #263, 'UNSPECIFIED' ) ;
#33 = EDGE_LOOP ( 'NONE', ( #15 ) ) ;
#34 = DATE_AND_TIME ( #37, #2 ) ;
#35 = CARTESIAN_POINT ( 'NONE',  ( 1.920314736363723724E-13, 6.735557395310448295E-14, 55.00000000000000711 ) ) ;
#36 = CALENDAR_DATE ( 2021, 15, 10 ) ;
#37 = CALENDAR_DATE ( 2021, 15, 10 ) ;
#38 = CC_DESIGN_SECURITY_CLASSIFICATION ( #64, ( #127 ) ) ;
#39 = PERSON_AND_ORGANIZATION ( #255, #190 ) ;
#40 = CARTESIAN_POINT ( 'NONE',  ( 3.072503578181957353E-13, -1.077689183249670724E-14, 88.00000000000000000 ) ) ;
#41 = AXIS2_PLACEMENT_3D ( 'NONE', #46, #226, #247 ) ;
#42 = CARTESIAN_POINT ( 'NONE',  ( 1.745740669421566678E-13, 3.749399456654632525E-32, 50.00000000000000000 ) ) ;
#43 = CYLINDRICAL_SURFACE ( 'NONE', #217, 4.364999999999962021 ) ;
#44 = DIRECTION ( 'NONE',  ( 0.0000000000000000000, 1.000000000000000000, 0.0000000000000000000 ) ) ;
#45 = CARTESIAN_POINT ( 'NONE',  ( 1.958715872874451879E-13, 6.870250450628526545E-14, 56.09985226280637249 ) ) ;
#46 = CARTESIAN_POINT ( 'NONE',  ( 6.053615810879798334E-15, 2.123322597656546571E-15, 1.733824478318879425 ) ) ;
#47 = CARTESIAN_POINT ( 'NONE',  ( 4.447783482921796462E-15, 3.500000000000000000, 1.273895819931697870 ) ) ;
#48 = EDGE_CURVE ( 'NONE', #3, #3, #153, .T. ) ;
#49 = ORIENTED_EDGE ( 'NONE', *, *, #150, .F. ) ;
#50 = DIRECTION ( 'NONE',  ( 4.275831445896958607E-31, 1.000000000000000000, 1.224646799147353207E-16 ) ) ;
#51 =( LENGTH_UNIT ( ) NAMED_UNIT ( * ) SI_UNIT ( .MILLI., .METRE. ) );
#52 = ADVANCED_FACE ( 'NONE', ( #93, #231 ), #28, .T. ) ;
#53 = EDGE_LOOP ( 'NONE', ( #260 ) ) ;
#54 = CARTESIAN_POINT ( 'NONE',  ( 1.988952988237221621E-13, 6.976307974501001306E-14, 56.96587766659067853 ) ) ;
#55 = ORIENTED_EDGE ( 'NONE', *, *, #178, .F. ) ;
#56 = SHAPE_DEFINITION_REPRESENTATION ( #71, #99 ) ;
#57 = AXIS2_PLACEMENT_3D ( 'NONE', #120, #31, #186 ) ;
#58 = ADVANCED_FACE ( 'NONE', ( #10, #66 ), #43, .T. ) ;
#59 = APPROVAL_DATE_TIME ( #34, #32 ) ;
#60 = COORDINATED_UNIVERSAL_TIME_OFFSET ( 1, 0, .AHEAD. ) ;
#61 = AXIS2_PLACEMENT_3D ( 'NONE', #54, #122, #140 ) ;
#62 = EDGE_CURVE ( 'NONE', #26, #26, #138, .T. ) ;
#63 = DIRECTION ( 'NONE',  ( 0.0000000000000000000, -1.000000000000000000, 0.0000000000000000000 ) ) ;
#64 = SECURITY_CLASSIFICATION ( '', '', #22 ) ;
#65 = CARTESIAN_POINT ( 'NONE',  ( 3.107418391570388560E-13, -1.089935651241144239E-14, 89.00000000000000000 ) ) ;
#66 = FACE_OUTER_BOUND ( 'NONE', #102, .T. ) ;
#67 = CARTESIAN_POINT ( 'NONE',  ( 1.920314736363723472E-13, 4.364999999999993108, 55.00000000000000000 ) ) ;
#68 = CIRCLE ( 'NONE', #223, 5.000000000000000888 ) ;
#69 = CARTESIAN_POINT ( 'NONE',  ( 6.053615810879780191E-15, 4.364999999999999325, 1.733824478318874096 ) ) ;
#70 = DIRECTION ( 'NONE',  ( -3.491481338843133355E-15, 1.224646799147353207E-16, -1.000000000000000000 ) ) ;
#71 = PRODUCT_DEFINITION_SHAPE ( 'NONE', 'NONE',  #78 ) ;
#72 = CARTESIAN_POINT ( 'NONE',  ( 1.745740669421566678E-13, -4.364999999999899849, 50.00000000000000000 ) ) ;
#73 = CC_DESIGN_DATE_AND_TIME_ASSIGNMENT ( #126, #81, ( #78 ) ) ;
#74 = ORIENTED_EDGE ( 'NONE', *, *, #62, .T. ) ;
#75 = CC_DESIGN_APPROVAL ( #244, ( #78 ) ) ;
#76 = ORIENTED_EDGE ( 'NONE', *, *, #173, .T. ) ;
#77 = DIRECTION ( 'NONE',  ( -3.491481338843133355E-15, 1.224646799147353207E-16, -1.000000000000000000 ) ) ;
#78 = PRODUCT_DEFINITION ( 'UNKNOWN', '', #127, #208 ) ;
#79 = AXIS2_PLACEMENT_3D ( 'NONE', #225, #114, #184 ) ;
#80 = ORIENTED_EDGE ( 'NONE', *, *, #48, .F. ) ;
#81 = DATE_TIME_ROLE ( 'creation_date' ) ;
#82 = EDGE_LOOP ( 'NONE', ( #80 ) ) ;
#83 = PERSON_AND_ORGANIZATION ( #255, #190 ) ;
#84 = APPROVAL ( #239, 'UNSPECIFIED' ) ;
#85 = COORDINATED_UNIVERSAL_TIME_OFFSET ( 1, 0, .AHEAD. ) ;
#86 = DATE_AND_TIME ( #87, #106 ) ;
#87 = CALENDAR_DATE ( 2021, 15, 10 ) ;
#88 = ADVANCED_FACE ( 'NONE', ( #242 ), #124, .F. ) ;
#89 = FACE_OUTER_BOUND ( 'NONE', #11, .T. ) ;
#90 = LOCAL_TIME ( 11, 34, 16.00000000000000000, #218 ) ;
#91 = FACE_OUTER_BOUND ( 'NONE', #156, .T. ) ;
#92 = CARTESIAN_POINT ( 'NONE',  ( 6.053615810879798334E-15, 2.123322597656546571E-15, 1.733824478318879425 ) ) ;
#93 = FACE_OUTER_BOUND ( 'NONE', #157, .T. ) ;
#94 = VERTEX_POINT ( 'NONE', #132 ) ;
#95 = MANIFOLD_SOLID_BREP ( 'Corps-Déplacer/Copier1[2]', #227 ) ;
#96 = CC_DESIGN_APPROVAL ( #84, ( #64 ) ) ;
#97 = MANIFOLD_SOLID_BREP ( 'Corps-Déplacer/Copier1[1]', #7 ) ;
#98 = CARTESIAN_POINT ( 'NONE',  ( 1.745740669421566678E-13, 6.123233995736771292E-14, 50.00000000000000000 ) ) ;
#99 = ADVANCED_BREP_SHAPE_REPRESENTATION ( '62884', ( #97, #95, #57 ), #199 ) ;
#100 = EDGE_LOOP ( 'NONE', ( #49 ) ) ;
#101 = FACE_OUTER_BOUND ( 'NONE', #14, .T. ) ;
#102 = EDGE_LOOP ( 'NONE', ( #139 ) ) ;
#103 = EDGE_LOOP ( 'NONE', ( #215 ) ) ;
#104 = CIRCLE ( 'NONE', #41, 4.364999999999997549 ) ;
#105 = ORIENTED_EDGE ( 'NONE', *, *, #249, .T. ) ;
#106 = LOCAL_TIME ( 11, 34, 16.00000000000000000, #262 ) ;
#107 = ADVANCED_FACE ( 'NONE', ( #5 ), #149, .T. ) ;
#108 = APPLICATION_PROTOCOL_DEFINITION ( 'international standard', 'config_control_design', 1994, #170 ) ;
#109 = DATE_AND_TIME ( #240, #125 ) ;
#110 = CC_DESIGN_PERSON_AND_ORGANIZATION_ASSIGNMENT ( #162, #180, ( #127 ) ) ;
#111 = DATE_AND_TIME ( #36, #224 ) ;
#112 = FACE_OUTER_BOUND ( 'NONE', #236, .T. ) ;
#113 = AXIS2_PLACEMENT_3D ( 'NONE', #45, #136, #181 ) ;
#114 = DIRECTION ( 'NONE',  ( -3.491481338843133355E-15, -1.224646799147354045E-15, -1.000000000000000000 ) ) ;
#115 = CARTESIAN_POINT ( 'NONE',  ( 1.745740669421566678E-13, 3.749399456654632525E-32, 50.00000000000000000 ) ) ;
#116 = VERTEX_POINT ( 'NONE', #6 ) ;
#117 = DIRECTION ( 'NONE',  ( 3.491481338843133355E-15, 1.224646799147354045E-15, 1.000000000000000000 ) ) ;
#118 = CC_DESIGN_PERSON_AND_ORGANIZATION_ASSIGNMENT ( #220, #196, ( #64 ) ) ;
#119 = CONICAL_SURFACE ( 'NONE', #179, 3.499999999999997780, 1.221730476396032161 ) ;
#120 = CARTESIAN_POINT ( 'NONE',  ( 0.0000000000000000000, 0.0000000000000000000, 0.0000000000000000000 ) ) ;
#121 = PERSON_AND_ORGANIZATION_ROLE ( 'design_supplier' ) ;
#122 = DIRECTION ( 'NONE',  ( 3.491481338843133355E-15, 1.224646799147354045E-15, 1.000000000000000000 ) ) ;
#123 = ORIENTED_EDGE ( 'NONE', *, *, #150, .T. ) ;
#124 = PLANE ( 'NONE',  #12 ) ;
#125 = LOCAL_TIME ( 11, 34, 16.00000000000000000, #60 ) ;
#126 = DATE_AND_TIME ( #143, #90 ) ;
#127 = PRODUCT_DEFINITION_FORMATION_WITH_SPECIFIED_SOURCE ( 'ANY', '', #252, .NOT_KNOWN. ) ;
#128 = DIRECTION ( 'NONE',  ( -3.491481338843133355E-15, 1.224646799147353207E-16, -1.000000000000000000 ) ) ;
#129 = DIRECTION ( 'NONE',  ( -3.491481338843133355E-15, 1.224646799147353207E-16, -1.000000000000000000 ) ) ;
#130 = AXIS2_PLACEMENT_3D ( 'NONE', #258, #77, #50 ) ;
#131 = DIRECTION ( 'NONE',  ( -5.647629619279963121E-30, 1.000000000000000000, -1.589666415557238631E-15 ) ) ;
#132 = CARTESIAN_POINT ( 'NONE',  ( 1.745740669421566678E-13, -4.364999999999899849, 50.00000000000000000 ) ) ;
#133 = CC_DESIGN_PERSON_AND_ORGANIZATION_ASSIGNMENT ( #158, #121, ( #127 ) ) ;
#134 = CARTESIAN_POINT ( 'NONE',  ( -3.491481338843130200E-15, -1.224646799147353059E-15, -0.9999999999999991118 ) ) ;
#135 = AXIS2_PLACEMENT_3D ( 'NONE', #146, #229, #185 ) ;
#136 = DIRECTION ( 'NONE',  ( 3.491481338843133355E-15, 1.224646799147354045E-15, 1.000000000000000000 ) ) ;
#137 = FACE_BOUND ( 'NONE', #82, .T. ) ;
#138 = CIRCLE ( 'NONE', #113, 4.999999999999999112 ) ;
#139 = ORIENTED_EDGE ( 'NONE', *, *, #166, .F. ) ;
#140 = DIRECTION ( 'NONE',  ( 4.482164234210356579E-30, -1.000000000000000000, 1.261617073437695403E-15 ) ) ;
#141 = ORIENTED_EDGE ( 'NONE', *, *, #249, .F. ) ;
#142 = CONICAL_SURFACE ( 'NONE', #61, 5.499999999999923617, 0.5235987755982994818 ) ;
#143 = CALENDAR_DATE ( 2021, 15, 10 ) ;
#144 = CONICAL_SURFACE ( 'NONE', #16, 4.364999999999998437, 1.082104136236486047 ) ;
#145 = ADVANCED_FACE ( 'NONE', ( #202, #147 ), #204, .T. ) ;
#146 = CARTESIAN_POINT ( 'NONE',  ( 1.745740669421566678E-13, 6.123233995736771292E-14, 50.00000000000000000 ) ) ;
#147 = FACE_BOUND ( 'NONE', #103, .T. ) ;
#148 = DIRECTION ( 'NONE',  ( -3.491481338843133355E-15, -1.224646799147354045E-15, -1.000000000000000000 ) ) ;
#149 = PLANE ( 'NONE',  #24 ) ;
#150 = EDGE_CURVE ( 'NONE', #250, #250, #104, .T. ) ;
#151 = APPLICATION_CONTEXT ( 'configuration controlled 3d designs of mechanical parts and assemblies' ) ;
#152 = VERTEX_POINT ( 'NONE', #47 ) ;
#153 = CIRCLE ( 'NONE', #195, 4.364999999999925606 ) ;
#154 = EDGE_LOOP ( 'NONE', ( #141 ) ) ;
#155 = APPROVAL_PERSON_ORGANIZATION ( #83, #84, #175 ) ;
#156 = EDGE_LOOP ( 'NONE', ( #123 ) ) ;
#157 = EDGE_LOOP ( 'NONE', ( #261 ) ) ;
#158 = PERSON_AND_ORGANIZATION ( #255, #190 ) ;
#159 = PERSON_AND_ORGANIZATION ( #255, #190 ) ;
#160 = AXIS2_PLACEMENT_3D ( 'NONE', #65, #23, #29 ) ;
#161 = CIRCLE ( 'NONE', #79, 3.499999999999998224 ) ;
#162 = PERSON_AND_ORGANIZATION ( #255, #190 ) ;
#163 = FACE_BOUND ( 'NONE', #154, .T. ) ;
#164 = DIRECTION ( 'NONE',  ( 4.235722214459901925E-30, -1.000000000000000000, 1.241926887154071887E-15 ) ) ;
#165 = CARTESIAN_POINT ( 'NONE',  ( 1.958715872874452131E-13, -4.999999999999930722, 56.09985226280637960 ) ) ;
#166 = EDGE_CURVE ( 'NONE', #94, #94, #193, .T. ) ;
#167 = AXIS2_PLACEMENT_3D ( 'NONE', #25, #128, #44 ) ;
#168 = DIRECTION ( 'NONE',  ( -4.275831445896958607E-31, -1.000000000000000000, -1.224646799147353207E-16 ) ) ;
#169 = CARTESIAN_POINT ( 'NONE',  ( 3.107418391570388560E-13, 3.999999999999990674, 89.00000000000000000 ) ) ;
#170 = APPLICATION_CONTEXT ( 'configuration controlled 3d designs of mechanical parts and assemblies' ) ;
#171 = ADVANCED_FACE ( 'NONE', ( #253 ), #119, .T. ) ;
#172 = PLANE ( 'NONE',  #130 ) ;
#173 = EDGE_CURVE ( 'NONE', #116, #116, #68, .T. ) ;
#174 = EDGE_LOOP ( 'NONE', ( #259 ) ) ;
#175 = APPROVAL_ROLE ( '' ) ;
#176 = PERSON_AND_ORGANIZATION_ROLE ( 'creator' ) ;
#177 = APPROVAL_DATE_TIME ( #86, #244 ) ;
#178 = EDGE_CURVE ( 'NONE', #234, #234, #21, .T. ) ;
#179 = AXIS2_PLACEMENT_3D ( 'NONE', #207, #117, #191 ) ;
#180 = PERSON_AND_ORGANIZATION_ROLE ( 'creator' ) ;
#181 = DIRECTION ( 'NONE',  ( 4.930380657631324484E-30, -1.000000000000000000, 1.387778780781445873E-15 ) ) ;
#182 = CC_DESIGN_PERSON_AND_ORGANIZATION_ASSIGNMENT ( #159, #176, ( #78 ) ) ;
#183 = DIRECTION ( 'NONE',  ( 4.275831445896958607E-31, 1.000000000000000000, 1.224646799147353207E-16 ) ) ;
#184 = DIRECTION ( 'NONE',  ( -4.182019307812285568E-30, 1.000000000000000000, -1.239088197126291458E-15 ) ) ;
#185 = DIRECTION ( 'NONE',  ( 0.0000000000000000000, -1.000000000000000000, 0.0000000000000000000 ) ) ;
#186 = DIRECTION ( 'NONE',  ( 1.000000000000000000, 0.0000000000000000000, 0.0000000000000000000 ) ) ;
#187 = DIRECTION ( 'NONE',  ( 0.0000000000000000000, 1.000000000000000000, 0.0000000000000000000 ) ) ;
#188 = AXIS2_PLACEMENT_3D ( 'NONE', #98, #129, #63 ) ;
#189 =( NAMED_UNIT ( * ) PLANE_ANGLE_UNIT ( ) SI_UNIT ( $, .RADIAN. ) );
#190 = ORGANIZATION ( 'UNSPECIFIED', 'UNSPECIFIED', '' ) ;
#191 = DIRECTION ( 'NONE',  ( 4.182019307812286269E-30, -1.000000000000000000, 1.239088197126291655E-15 ) ) ;
#192 = ADVANCED_FACE ( 'NONE', ( #112, #89 ), #232, .T. ) ;
#193 = CIRCLE ( 'NONE', #188, 4.364999999999962021 ) ;
#194 = ADVANCED_FACE ( 'NONE', ( #163, #91 ), #144, .T. ) ;
#195 = AXIS2_PLACEMENT_3D ( 'NONE', #35, #148, #131 ) ;
#196 = PERSON_AND_ORGANIZATION_ROLE ( 'classification_officer' ) ;
#197 = CIRCLE ( 'NONE', #135, 4.364999999999962021 ) ;
#198 = PERSON_AND_ORGANIZATION_ROLE ( 'design_owner' ) ;
#199 =( GEOMETRIC_REPRESENTATION_CONTEXT ( 3 ) GLOBAL_UNCERTAINTY_ASSIGNED_CONTEXT ( ( #4 ) ) GLOBAL_UNIT_ASSIGNED_CONTEXT ( ( #51, #189, #221 ) ) REPRESENTATION_CONTEXT ( 'NONE', 'WORKASPACE' ) );
#200 = CC_DESIGN_APPROVAL ( #32, ( #127 ) ) ;
#201 = PRODUCT_RELATED_PRODUCT_CATEGORY ( 'detail', '', ( #252 ) ) ;
#202 = FACE_OUTER_BOUND ( 'NONE', #235, .T. ) ;
#203 = DIRECTION ( 'NONE',  ( 3.491481338843133355E-15, -1.224646799147353207E-16, 1.000000000000000000 ) ) ;
#204 = CONICAL_SURFACE ( 'NONE', #160, 4.000000000000001776, 0.7853981633974473908 ) ;
#205 = DIRECTION ( 'NONE',  ( -4.235722214459936958E-30, 1.000000000000000000, -1.241926887154082339E-15 ) ) ;
#206 = CARTESIAN_POINT ( 'NONE',  ( 0.0000000000000000000, 0.0000000000000000000, 0.0000000000000000000 ) ) ;
#207 = CARTESIAN_POINT ( 'NONE',  ( 4.447783482921810661E-15, 1.560072438326553154E-15, 1.273895819931702089 ) ) ;
#208 = DESIGN_CONTEXT ( 'detailed design', #170, 'design' ) ;
#209 = DIRECTION ( 'NONE',  ( -4.275831445896958607E-31, -1.000000000000000000, -1.224646799147353207E-16 ) ) ;
#210 = CARTESIAN_POINT ( 'NONE',  ( -3.491481338843130200E-15, -1.224646799147353059E-15, -0.9999999999999991118 ) ) ;
#211 = EDGE_CURVE ( 'NONE', #256, #256, #197, .T. ) ;
#212 = ORIENTED_EDGE ( 'NONE', *, *, #173, .F. ) ;
#213 = AXIS2_PLACEMENT_3D ( 'NONE', #210, #248, #205 ) ;
#214 = PERSON_AND_ORGANIZATION ( #255, #190 ) ;
#215 = ORIENTED_EDGE ( 'NONE', *, *, #178, .T. ) ;
#216 = COORDINATED_UNIVERSAL_TIME_OFFSET ( 1, 0, .AHEAD. ) ;
#217 = AXIS2_PLACEMENT_3D ( 'NONE', #134, #251, #230 ) ;
#218 = COORDINATED_UNIVERSAL_TIME_OFFSET ( 1, 0, .AHEAD. ) ;
#219 = APPROVAL_PERSON_ORGANIZATION ( #214, #32, #243 ) ;
#220 = PERSON_AND_ORGANIZATION ( #255, #190 ) ;
#221 =( NAMED_UNIT ( * ) SI_UNIT ( $, .STERADIAN. ) SOLID_ANGLE_UNIT ( ) );
#222 = APPROVAL_STATUS ( 'not_yet_approved' ) ;
#223 = AXIS2_PLACEMENT_3D ( 'NONE', #40, #70, #187 ) ;
#224 = LOCAL_TIME ( 11, 34, 16.00000000000000000, #216 ) ;
#225 = CARTESIAN_POINT ( 'NONE',  ( 4.447783482921810661E-15, 1.560072438326553154E-15, 1.273895819931702089 ) ) ;
#226 = DIRECTION ( 'NONE',  ( -3.491481338843133355E-15, -1.224646799147354045E-15, -1.000000000000000000 ) ) ;
#227 = CLOSED_SHELL ( 'NONE', ( #107, #171, #194, #52 ) ) ;
#228 = APPLICATION_PROTOCOL_DEFINITION ( 'international standard', 'config_control_design', 1994, #151 ) ;
#229 = DIRECTION ( 'NONE',  ( -3.491481338843133355E-15, 1.224646799147353207E-16, -1.000000000000000000 ) ) ;
#230 = DIRECTION ( 'NONE',  ( -4.235722214459936958E-30, 1.000000000000000000, -1.241926887154082339E-15 ) ) ;
#231 = FACE_OUTER_BOUND ( 'NONE', #100, .T. ) ;
#232 = CYLINDRICAL_SURFACE ( 'NONE', #245, 4.999999999999999112 ) ;
#233 = CC_DESIGN_PERSON_AND_ORGANIZATION_ASSIGNMENT ( #39, #198, ( #252 ) ) ;
#234 = VERTEX_POINT ( 'NONE', #169 ) ;
#235 = EDGE_LOOP ( 'NONE', ( #212 ) ) ;
#236 = EDGE_LOOP ( 'NONE', ( #74 ) ) ;
#237 = FACE_OUTER_BOUND ( 'NONE', #53, .T. ) ;
#238 = EDGE_LOOP ( 'NONE', ( #17 ) ) ;
#239 = APPROVAL_STATUS ( 'not_yet_approved' ) ;
#240 = CALENDAR_DATE ( 2021, 15, 10 ) ;
#241 = APPROVAL_ROLE ( '' ) ;
#242 = FACE_OUTER_BOUND ( 'NONE', #174, .T. ) ;
#243 = APPROVAL_ROLE ( '' ) ;
#244 = APPROVAL ( #222, 'UNSPECIFIED' ) ;
#245 = AXIS2_PLACEMENT_3D ( 'NONE', #206, #27, #183 ) ;
#246 = DIRECTION ( 'NONE',  ( 3.491481338843133355E-15, 1.224646799147354045E-15, 1.000000000000000000 ) ) ;
#247 = DIRECTION ( 'NONE',  ( -4.235722214459902626E-30, 1.000000000000000000, -1.241926887154072281E-15 ) ) ;
#248 = DIRECTION ( 'NONE',  ( -3.491481338843133355E-15, -1.224646799147354045E-15, -1.000000000000000000 ) ) ;
#249 = EDGE_CURVE ( 'NONE', #152, #152, #161, .T. ) ;
#250 = VERTEX_POINT ( 'NONE', #69 ) ;
#251 = DIRECTION ( 'NONE',  ( -3.491481338843133355E-15, -1.224646799147354045E-15, -1.000000000000000000 ) ) ;
#252 = PRODUCT ( '62884', '62884', '', ( #257 ) ) ;
#253 = FACE_OUTER_BOUND ( 'NONE', #13, .T. ) ;
#254 = CC_DESIGN_DATE_AND_TIME_ASSIGNMENT ( #111, #20, ( #64 ) ) ;
#255 = PERSON ( 'UNSPECIFIED', 'UNSPECIFIED', 'UNSPECIFIED', ('UNSPECIFIED'), ('UNSPECIFIED'), ('UNSPECIFIED') ) ;
#256 = VERTEX_POINT ( 'NONE', #72 ) ;
#257 = MECHANICAL_CONTEXT ( 'NONE', #151, 'mechanical' ) ;
#258 = CARTESIAN_POINT ( 'NONE',  ( 3.107418391570388560E-13, 2.999519565323699889E-32, 89.00000000000000000 ) ) ;
#259 = ORIENTED_EDGE ( 'NONE', *, *, #166, .T. ) ;
#260 = ORIENTED_EDGE ( 'NONE', *, *, #62, .F. ) ;
#261 = ORIENTED_EDGE ( 'NONE', *, *, #211, .T. ) ;
#262 = COORDINATED_UNIVERSAL_TIME_OFFSET ( 1, 0, .AHEAD. ) ;
#263 = APPROVAL_STATUS ( 'not_yet_approved' ) ;
ENDSEC;
END-ISO-10303-21;
