ISO-10303-21;
HEADER;
FILE_DESCRIPTION (( 'STEP AP203' ),
    '1' );
FILE_NAME ('62883.step',
    '2021-10-15T09:34:15',
    ( '' ),
    ( '' ),
    'SwSTEP 2.0',
    'SolidWorks 2019',
    '' );
FILE_SCHEMA (( 'CONFIG_CONTROL_DESIGN' ));
ENDSEC;

DATA;
#1 = CIRCLE ( 'NONE', #137, 3.324999999999998401 ) ;
#2 = DATE_AND_TIME ( #139, #173 ) ;
#3 = CC_DESIGN_APPROVAL ( #18, ( #200 ) ) ;
#4 = EDGE_LOOP ( 'NONE', ( #21 ) ) ;
#5 = APPLICATION_CONTEXT ( 'configuration controlled 3d designs of mechanical parts and assemblies' ) ;
#6 = ADVANCED_FACE ( 'NONE', ( #251, #148 ), #10, .T. ) ;
#7 = EDGE_LOOP ( 'NONE', ( #25 ) ) ;
#8 = DIRECTION ( 'NONE',  ( -4.254154979198735504E-30, 1.000000000000000000, -1.249500702984506300E-15 ) ) ;
#9 = MECHANICAL_CONTEXT ( 'NONE', #241, 'mechanical' ) ;
#10 = CYLINDRICAL_SURFACE ( 'NONE', #157, 4.999999999999999112 ) ;
#11 = DIRECTION ( 'NONE',  ( 3.491481338843133355E-15, -1.224646799147353207E-16, 1.000000000000000000 ) ) ;
#12 = DIRECTION ( 'NONE',  ( 4.275831445896958607E-31, 1.000000000000000000, 1.224646799147353207E-16 ) ) ;
#13 =( GEOMETRIC_REPRESENTATION_CONTEXT ( 3 ) GLOBAL_UNCERTAINTY_ASSIGNED_CONTEXT ( ( #143 ) ) GLOBAL_UNIT_ASSIGNED_CONTEXT ( ( #239, #214, #55 ) ) REPRESENTATION_CONTEXT ( 'NONE', 'WORKASPACE' ) );
#14 = LOCAL_TIME ( 11, 34, 15.00000000000000000, #138 ) ;
#15 = PERSON_AND_ORGANIZATION ( #129, #162 ) ;
#16 = CALENDAR_DATE ( 2021, 15, 10 ) ;
#17 = SECURITY_CLASSIFICATION_LEVEL ( 'unclassified' ) ;
#18 = APPROVAL ( #60, 'UNSPECIFIED' ) ;
#19 = CALENDAR_DATE ( 2021, 15, 10 ) ;
#20 = CIRCLE ( 'NONE', #238, 4.164999999999925429 ) ;
#21 = ORIENTED_EDGE ( 'NONE', *, *, #228, .T. ) ;
#22 = ADVANCED_FACE ( 'NONE', ( #75 ), #207, .T. ) ;
#23 = ORIENTED_EDGE ( 'NONE', *, *, #226, .F. ) ;
#24 = AXIS2_PLACEMENT_3D ( 'NONE', #169, #108, #123 ) ;
#25 = ORIENTED_EDGE ( 'NONE', *, *, #54, .T. ) ;
#26 = LOCAL_TIME ( 11, 34, 15.00000000000000000, #125 ) ;
#27 = EDGE_LOOP ( 'NONE', ( #163 ) ) ;
#28 = DIRECTION ( 'NONE',  ( -4.275831445896958607E-31, -1.000000000000000000, -1.224646799147353207E-16 ) ) ;
#29 = CARTESIAN_POINT ( 'NONE',  ( 1.920314736363723724E-13, 6.735557395310448295E-14, 55.00000000000000711 ) ) ;
#30 = CARTESIAN_POINT ( 'NONE',  ( 0.0000000000000000000, 0.0000000000000000000, 0.0000000000000000000 ) ) ;
#31 = CYLINDRICAL_SURFACE ( 'NONE', #223, 4.164999999999961844 ) ;
#32 = CARTESIAN_POINT ( 'NONE',  ( 1.745740669421566678E-13, 6.123233995736771292E-14, 50.00000000000000000 ) ) ;
#33 = CC_DESIGN_DATE_AND_TIME_ASSIGNMENT ( #2, #177, ( #45 ) ) ;
#34 = DIRECTION ( 'NONE',  ( -3.491481338843133355E-15, 1.224646799147353207E-16, -1.000000000000000000 ) ) ;
#35 = VERTEX_POINT ( 'NONE', #256 ) ;
#36 = PERSON_AND_ORGANIZATION ( #129, #162 ) ;
#37 = COORDINATED_UNIVERSAL_TIME_OFFSET ( 1, 0, .AHEAD. ) ;
#38 = SHAPE_DEFINITION_REPRESENTATION ( #179, #83 ) ;
#39 = PERSON_AND_ORGANIZATION ( #129, #162 ) ;
#40 = CONICAL_SURFACE ( 'NONE', #230, 4.000000000000001776, 0.7853981633974473908 ) ;
#41 = CALENDAR_DATE ( 2021, 15, 10 ) ;
#42 = ADVANCED_FACE ( 'NONE', ( #109, #164 ), #90, .T. ) ;
#43 = EDGE_LOOP ( 'NONE', ( #105 ) ) ;
#44 = CIRCLE ( 'NONE', #106, 5.000000000000000888 ) ;
#45 = PRODUCT_DEFINITION ( 'UNKNOWN', '', #200, #159 ) ;
#46 = CARTESIAN_POINT ( 'NONE',  ( 4.225394308775720049E-15, 1.482068816410225595E-15, 1.210201028935117051 ) ) ;
#47 = CYLINDRICAL_SURFACE ( 'NONE', #119, 4.164999999999961844 ) ;
#48 = VERTEX_POINT ( 'NONE', #127 ) ;
#49 = FACE_OUTER_BOUND ( 'NONE', #82, .T. ) ;
#50 = DIRECTION ( 'NONE',  ( -3.491481338843133355E-15, -1.224646799147354045E-15, -1.000000000000000000 ) ) ;
#51 = CARTESIAN_POINT ( 'NONE',  ( 3.072503578181957353E-13, 4.999999999999990230, 88.00000000000000000 ) ) ;
#52 = APPROVAL_PERSON_ORGANIZATION ( #36, #134, #61 ) ;
#53 = CARTESIAN_POINT ( 'NONE',  ( 1.745740669421566678E-13, 3.749399456654632525E-32, 50.00000000000000000 ) ) ;
#54 = EDGE_CURVE ( 'NONE', #196, #196, #112, .T. ) ;
#55 =( NAMED_UNIT ( * ) SI_UNIT ( $, .STERADIAN. ) SOLID_ANGLE_UNIT ( ) );
#56 = FACE_OUTER_BOUND ( 'NONE', #195, .T. ) ;
#57 = PERSON_AND_ORGANIZATION ( #129, #162 ) ;
#58 = PRODUCT ( '62883', '62883', '', ( #9 ) ) ;
#59 = AXIS2_PLACEMENT_3D ( 'NONE', #110, #88, #130 ) ;
#60 = APPROVAL_STATUS ( 'not_yet_approved' ) ;
#61 = APPROVAL_ROLE ( '' ) ;
#62 = EDGE_LOOP ( 'NONE', ( #84 ) ) ;
#63 = CC_DESIGN_SECURITY_CLASSIFICATION ( #95, ( #200 ) ) ;
#64 = AXIS2_PLACEMENT_3D ( 'NONE', #53, #11, #28 ) ;
#65 = DIRECTION ( 'NONE',  ( -4.275831445896958607E-31, -1.000000000000000000, -1.224646799147353207E-16 ) ) ;
#66 = AXIS2_PLACEMENT_3D ( 'NONE', #210, #249, #65 ) ;
#67 = DIRECTION ( 'NONE',  ( 4.275831445896958607E-31, 1.000000000000000000, 1.224646799147353207E-16 ) ) ;
#68 = AXIS2_PLACEMENT_3D ( 'NONE', #232, #50, #237 ) ;
#69 = DIRECTION ( 'NONE',  ( 0.0000000000000000000, -1.000000000000000000, 0.0000000000000000000 ) ) ;
#70 = FACE_OUTER_BOUND ( 'NONE', #205, .T. ) ;
#71 = DIRECTION ( 'NONE',  ( -5.918824318885248888E-30, 1.000000000000000000, -1.666000937312689793E-15 ) ) ;
#72 = CC_DESIGN_PERSON_AND_ORGANIZATION_ASSIGNMENT ( #15, #263, ( #95 ) ) ;
#73 = CARTESIAN_POINT ( 'NONE',  ( 5.784815297775386267E-15, 2.029040069401202429E-15, 1.656836951530757940 ) ) ;
#74 = CARTESIAN_POINT ( 'NONE',  ( 3.107418391570388560E-13, 2.999519565323699889E-32, 89.00000000000000000 ) ) ;
#75 = FACE_OUTER_BOUND ( 'NONE', #62, .T. ) ;
#76 = DIRECTION ( 'NONE',  ( -3.491481338843133355E-15, -1.224646799147354045E-15, -1.000000000000000000 ) ) ;
#77 = CALENDAR_DATE ( 2021, 15, 10 ) ;
#78 = MANIFOLD_SOLID_BREP ( 'Corps-Déplacer/Copier1[1]', #120 ) ;
#79 = CONICAL_SURFACE ( 'NONE', #209, 4.164999999999998259, 1.082104136236485603 ) ;
#80 = CIRCLE ( 'NONE', #242, 4.164999999999961844 ) ;
#81 = CC_DESIGN_PERSON_AND_ORGANIZATION_ASSIGNMENT ( #198, #174, ( #58 ) ) ;
#82 = EDGE_LOOP ( 'NONE', ( #158 ) ) ;
#83 = ADVANCED_BREP_SHAPE_REPRESENTATION ( '62883', ( #78, #160, #186 ), #13 ) ;
#84 = ORIENTED_EDGE ( 'NONE', *, *, #107, .T. ) ;
#85 = ORIENTED_EDGE ( 'NONE', *, *, #54, .F. ) ;
#86 = DIRECTION ( 'NONE',  ( 3.491481338843133355E-15, 1.224646799147354045E-15, 1.000000000000000000 ) ) ;
#87 = EDGE_CURVE ( 'NONE', #236, #236, #180, .T. ) ;
#88 = DIRECTION ( 'NONE',  ( 3.491481338843133355E-15, 1.224646799147354045E-15, 1.000000000000000000 ) ) ;
#89 = EDGE_LOOP ( 'NONE', ( #23 ) ) ;
#90 = CONICAL_SURFACE ( 'NONE', #229, 5.499999999999922728, 0.5235987755982994818 ) ;
#91 = ADVANCED_FACE ( 'NONE', ( #49 ), #191, .T. ) ;
#92 = DIRECTION ( 'NONE',  ( -4.254154979198735504E-30, 1.000000000000000000, -1.249500702984506300E-15 ) ) ;
#93 = APPLICATION_PROTOCOL_DEFINITION ( 'international standard', 'config_control_design', 1994, #241 ) ;
#94 = FACE_OUTER_BOUND ( 'NONE', #121, .T. ) ;
#95 = SECURITY_CLASSIFICATION ( '', '', #17 ) ;
#96 = DATE_AND_TIME ( #16, #26 ) ;
#97 = COORDINATED_UNIVERSAL_TIME_OFFSET ( 1, 0, .AHEAD. ) ;
#98 = PERSON_AND_ORGANIZATION_ROLE ( 'design_supplier' ) ;
#99 = EDGE_CURVE ( 'NONE', #154, #154, #80, .T. ) ;
#100 = PERSON_AND_ORGANIZATION_ROLE ( 'creator' ) ;
#101 = ORIENTED_EDGE ( 'NONE', *, *, #87, .T. ) ;
#102 = CIRCLE ( 'NONE', #140, 4.164999999999961844 ) ;
#103 = ORIENTED_EDGE ( 'NONE', *, *, #99, .T. ) ;
#104 = EDGE_LOOP ( 'NONE', ( #183 ) ) ;
#105 = ORIENTED_EDGE ( 'NONE', *, *, #107, .F. ) ;
#106 = AXIS2_PLACEMENT_3D ( 'NONE', #240, #165, #194 ) ;
#107 = EDGE_CURVE ( 'NONE', #48, #48, #1, .T. ) ;
#108 = DIRECTION ( 'NONE',  ( -3.491481338843133355E-15, 1.224646799147353207E-16, -1.000000000000000000 ) ) ;
#109 = FACE_BOUND ( 'NONE', #89, .T. ) ;
#110 = CARTESIAN_POINT ( 'NONE',  ( 1.970810719019561644E-13, 6.912673460177523265E-14, 56.44626242432014607 ) ) ;
#111 = DIRECTION ( 'NONE',  ( -4.170434766793414698E-30, 1.000000000000000000, -1.239088197126291458E-15 ) ) ;
#112 = CIRCLE ( 'NONE', #59, 4.999999999999999112 ) ;
#113 = FACE_BOUND ( 'NONE', #43, .T. ) ;
#114 = DIRECTION ( 'NONE',  ( 0.0000000000000000000, 1.000000000000000000, 0.0000000000000000000 ) ) ;
#115 = APPROVAL_STATUS ( 'not_yet_approved' ) ;
#116 = DATE_AND_TIME ( #77, #14 ) ;
#117 = CC_DESIGN_PERSON_AND_ORGANIZATION_ASSIGNMENT ( #39, #100, ( #200 ) ) ;
#118 = EDGE_LOOP ( 'NONE', ( #208 ) ) ;
#119 = AXIS2_PLACEMENT_3D ( 'NONE', #211, #189, #8 ) ;
#120 = CLOSED_SHELL ( 'NONE', ( #6, #203, #234, #153, #42, #178 ) ) ;
#121 = EDGE_LOOP ( 'NONE', ( #101 ) ) ;
#122 = EDGE_CURVE ( 'NONE', #222, #222, #142, .T. ) ;
#123 = DIRECTION ( 'NONE',  ( 0.0000000000000000000, 1.000000000000000000, 0.0000000000000000000 ) ) ;
#124 = CARTESIAN_POINT ( 'NONE',  ( -3.491481338843130200E-15, -1.224646799147353059E-15, -0.9999999999999991118 ) ) ;
#125 = COORDINATED_UNIVERSAL_TIME_OFFSET ( 1, 0, .AHEAD. ) ;
#126 = DIRECTION ( 'NONE',  ( 4.482164234210357280E-30, -1.000000000000000000, 1.261617073437695600E-15 ) ) ;
#127 = CARTESIAN_POINT ( 'NONE',  ( 4.225394308775706639E-15, 3.324999999999999734, 1.210201028935112832 ) ) ;
#128 = CARTESIAN_POINT ( 'NONE',  ( 2.001047834382331386E-13, 7.018730984049998026E-14, 57.31228782810445210 ) ) ;
#129 = PERSON ( 'UNSPECIFIED', 'UNSPECIFIED', 'UNSPECIFIED', ('UNSPECIFIED'), ('UNSPECIFIED'), ('UNSPECIFIED') ) ;
#130 = DIRECTION ( 'NONE',  ( 4.930380657631324484E-30, -1.000000000000000000, 1.387778780781445873E-15 ) ) ;
#131 = DIRECTION ( 'NONE',  ( 0.0000000000000000000, 0.0000000000000000000, 1.000000000000000000 ) ) ;
#132 = FACE_BOUND ( 'NONE', #118, .T. ) ;
#133 = DIRECTION ( 'NONE',  ( -3.491481338843133355E-15, 1.224646799147353207E-16, -1.000000000000000000 ) ) ;
#134 = APPROVAL ( #155, 'UNSPECIFIED' ) ;
#135 = APPROVAL_PERSON_ORGANIZATION ( #57, #254, #201 ) ;
#136 = DATE_AND_TIME ( #41, #192 ) ;
#137 = AXIS2_PLACEMENT_3D ( 'NONE', #46, #215, #111 ) ;
#138 = COORDINATED_UNIVERSAL_TIME_OFFSET ( 1, 0, .AHEAD. ) ;
#139 = CALENDAR_DATE ( 2021, 15, 10 ) ;
#140 = AXIS2_PLACEMENT_3D ( 'NONE', #252, #262, #69 ) ;
#141 = EDGE_LOOP ( 'NONE', ( #103 ) ) ;
#142 = CIRCLE ( 'NONE', #24, 4.000000000000001776 ) ;
#143 = UNCERTAINTY_MEASURE_WITH_UNIT (LENGTH_MEASURE( 1.000000000000000082E-05 ), #239, 'distance_accuracy_value', 'NONE');
#144 = FACE_OUTER_BOUND ( 'NONE', #141, .T. ) ;
#145 = APPROVAL_PERSON_ORGANIZATION ( #199, #18, #225 ) ;
#146 = DIRECTION ( 'NONE',  ( 4.170434766793414698E-30, -1.000000000000000000, 1.239088197126291458E-15 ) ) ;
#147 = CARTESIAN_POINT ( 'NONE',  ( 3.107418391570388560E-13, 3.999999999999990674, 89.00000000000000000 ) ) ;
#148 = FACE_OUTER_BOUND ( 'NONE', #247, .T. ) ;
#149 = PLANE ( 'NONE',  #250 ) ;
#150 = DIRECTION ( 'NONE',  ( 3.491481338843133355E-15, 1.224646799147354045E-15, 1.000000000000000000 ) ) ;
#151 = CARTESIAN_POINT ( 'NONE',  ( 5.784815297775368912E-15, 4.164999999999999147, 1.656836951530752611 ) ) ;
#152 = DIRECTION ( 'NONE',  ( -3.491481338843133355E-15, 1.224646799147353207E-16, -1.000000000000000000 ) ) ;
#153 = ADVANCED_FACE ( 'NONE', ( #167, #70 ), #31, .T. ) ;
#154 = VERTEX_POINT ( 'NONE', #258 ) ;
#155 = APPROVAL_STATUS ( 'not_yet_approved' ) ;
#156 = CC_DESIGN_DATE_AND_TIME_ASSIGNMENT ( #116, #181, ( #95 ) ) ;
#157 = AXIS2_PLACEMENT_3D ( 'NONE', #30, #219, #67 ) ;
#158 = ORIENTED_EDGE ( 'NONE', *, *, #99, .F. ) ;
#159 = DESIGN_CONTEXT ( 'detailed design', #5, 'design' ) ;
#160 = MANIFOLD_SOLID_BREP ( 'Corps-Déplacer/Copier1[2]', #166 ) ;
#161 = PRODUCT_RELATED_PRODUCT_CATEGORY ( 'detail', '', ( #58 ) ) ;
#162 = ORGANIZATION ( 'UNSPECIFIED', 'UNSPECIFIED', '' ) ;
#163 = ORIENTED_EDGE ( 'NONE', *, *, #122, .F. ) ;
#164 = FACE_OUTER_BOUND ( 'NONE', #204, .T. ) ;
#165 = DIRECTION ( 'NONE',  ( -3.491481338843133355E-15, 1.224646799147353207E-16, -1.000000000000000000 ) ) ;
#166 = CLOSED_SHELL ( 'NONE', ( #91, #22, #171, #184 ) ) ;
#167 = FACE_OUTER_BOUND ( 'NONE', #104, .T. ) ;
#168 = FACE_OUTER_BOUND ( 'NONE', #27, .T. ) ;
#169 = CARTESIAN_POINT ( 'NONE',  ( 3.107418391570388560E-13, -1.089935651241144239E-14, 89.00000000000000000 ) ) ;
#170 = CARTESIAN_POINT ( 'NONE',  ( 1.970810719019561896E-13, -4.999999999999929834, 56.44626242432015317 ) ) ;
#171 = ADVANCED_FACE ( 'NONE', ( #113, #94 ), #79, .T. ) ;
#172 = DIRECTION ( 'NONE',  ( 4.254154979198698369E-30, -1.000000000000000000, 1.249500702984495454E-15 ) ) ;
#173 = LOCAL_TIME ( 11, 34, 15.00000000000000000, #97 ) ;
#174 = PERSON_AND_ORGANIZATION_ROLE ( 'design_owner' ) ;
#175 = COORDINATED_UNIVERSAL_TIME_OFFSET ( 1, 0, .AHEAD. ) ;
#176 = APPROVAL_DATE_TIME ( #96, #254 ) ;
#177 = DATE_TIME_ROLE ( 'creation_date' ) ;
#178 = ADVANCED_FACE ( 'NONE', ( #188 ), #259, .F. ) ;
#179 = PRODUCT_DEFINITION_SHAPE ( 'NONE', 'NONE',  #45 ) ;
#180 = CIRCLE ( 'NONE', #68, 4.164999999999997371 ) ;
#181 = DATE_TIME_ROLE ( 'classification_date' ) ;
#182 = ORIENTED_EDGE ( 'NONE', *, *, #217, .T. ) ;
#183 = ORIENTED_EDGE ( 'NONE', *, *, #226, .T. ) ;
#184 = ADVANCED_FACE ( 'NONE', ( #144, #231 ), #47, .T. ) ;
#185 = ORIENTED_EDGE ( 'NONE', *, *, #217, .F. ) ;
#186 = AXIS2_PLACEMENT_3D ( 'NONE', #190, #131, #220 ) ;
#187 = EDGE_LOOP ( 'NONE', ( #213 ) ) ;
#188 = FACE_OUTER_BOUND ( 'NONE', #4, .T. ) ;
#189 = DIRECTION ( 'NONE',  ( -3.491481338843133355E-15, -1.224646799147354045E-15, -1.000000000000000000 ) ) ;
#190 = CARTESIAN_POINT ( 'NONE',  ( 0.0000000000000000000, 0.0000000000000000000, 0.0000000000000000000 ) ) ;
#191 = PLANE ( 'NONE',  #64 ) ;
#192 = LOCAL_TIME ( 11, 34, 15.00000000000000000, #175 ) ;
#193 = PERSON_AND_ORGANIZATION ( #129, #162 ) ;
#194 = DIRECTION ( 'NONE',  ( 0.0000000000000000000, 1.000000000000000000, 0.0000000000000000000 ) ) ;
#195 = EDGE_LOOP ( 'NONE', ( #185 ) ) ;
#196 = VERTEX_POINT ( 'NONE', #170 ) ;
#197 = DIRECTION ( 'NONE',  ( 0.0000000000000000000, -1.000000000000000000, 0.0000000000000000000 ) ) ;
#198 = PERSON_AND_ORGANIZATION ( #129, #162 ) ;
#199 = PERSON_AND_ORGANIZATION ( #129, #162 ) ;
#200 = PRODUCT_DEFINITION_FORMATION_WITH_SPECIFIED_SOURCE ( 'ANY', '', #58, .NOT_KNOWN. ) ;
#201 = APPROVAL_ROLE ( '' ) ;
#202 = PERSON_AND_ORGANIZATION ( #129, #162 ) ;
#203 = ADVANCED_FACE ( 'NONE', ( #56, #132 ), #40, .T. ) ;
#204 = EDGE_LOOP ( 'NONE', ( #85 ) ) ;
#205 = EDGE_LOOP ( 'NONE', ( #245 ) ) ;
#206 = CC_DESIGN_PERSON_AND_ORGANIZATION_ASSIGNMENT ( #193, #243, ( #45 ) ) ;
#207 = CONICAL_SURFACE ( 'NONE', #253, 3.324999999999998401, 1.221730476396032161 ) ;
#208 = ORIENTED_EDGE ( 'NONE', *, *, #122, .T. ) ;
#209 = AXIS2_PLACEMENT_3D ( 'NONE', #73, #150, #172 ) ;
#210 = CARTESIAN_POINT ( 'NONE',  ( 1.745740669421566678E-13, 3.749399456654632525E-32, 50.00000000000000000 ) ) ;
#211 = CARTESIAN_POINT ( 'NONE',  ( -3.491481338843130200E-15, -1.224646799147353059E-15, -0.9999999999999991118 ) ) ;
#212 = VERTEX_POINT ( 'NONE', #51 ) ;
#213 = ORIENTED_EDGE ( 'NONE', *, *, #87, .F. ) ;
#214 =( NAMED_UNIT ( * ) PLANE_ANGLE_UNIT ( ) SI_UNIT ( $, .RADIAN. ) );
#215 = DIRECTION ( 'NONE',  ( -3.491481338843133355E-15, -1.224646799147354045E-15, -1.000000000000000000 ) ) ;
#216 = CC_DESIGN_APPROVAL ( #254, ( #45 ) ) ;
#217 = EDGE_CURVE ( 'NONE', #212, #212, #44, .T. ) ;
#218 = VERTEX_POINT ( 'NONE', #233 ) ;
#219 = DIRECTION ( 'NONE',  ( -3.491481338843133355E-15, 1.224646799147353207E-16, -1.000000000000000000 ) ) ;
#220 = DIRECTION ( 'NONE',  ( 1.000000000000000000, 0.0000000000000000000, 0.0000000000000000000 ) ) ;
#221 = CARTESIAN_POINT ( 'NONE',  ( 3.107418391570388560E-13, -1.089935651241144239E-14, 89.00000000000000000 ) ) ;
#222 = VERTEX_POINT ( 'NONE', #147 ) ;
#223 = AXIS2_PLACEMENT_3D ( 'NONE', #124, #257, #92 ) ;
#224 = APPROVAL_DATE_TIME ( #136, #134 ) ;
#225 = APPROVAL_ROLE ( '' ) ;
#226 = EDGE_CURVE ( 'NONE', #218, #218, #20, .T. ) ;
#227 = CC_DESIGN_APPROVAL ( #134, ( #95 ) ) ;
#228 = EDGE_CURVE ( 'NONE', #35, #35, #102, .T. ) ;
#229 = AXIS2_PLACEMENT_3D ( 'NONE', #128, #86, #126 ) ;
#230 = AXIS2_PLACEMENT_3D ( 'NONE', #221, #34, #114 ) ;
#231 = FACE_OUTER_BOUND ( 'NONE', #187, .T. ) ;
#232 = CARTESIAN_POINT ( 'NONE',  ( 5.784815297775386267E-15, 2.029040069401202429E-15, 1.656836951530757940 ) ) ;
#233 = CARTESIAN_POINT ( 'NONE',  ( 1.920314736363723472E-13, 4.164999999999992930, 55.00000000000000000 ) ) ;
#234 = ADVANCED_FACE ( 'NONE', ( #168 ), #149, .F. ) ;
#235 = DIRECTION ( 'NONE',  ( 3.491481338843133355E-15, 1.224646799147354045E-15, 1.000000000000000000 ) ) ;
#236 = VERTEX_POINT ( 'NONE', #151 ) ;
#237 = DIRECTION ( 'NONE',  ( -4.254154979198699070E-30, 1.000000000000000000, -1.249500702984495651E-15 ) ) ;
#238 = AXIS2_PLACEMENT_3D ( 'NONE', #29, #76, #71 ) ;
#239 =( LENGTH_UNIT ( ) NAMED_UNIT ( * ) SI_UNIT ( .MILLI., .METRE. ) );
#240 = CARTESIAN_POINT ( 'NONE',  ( 3.072503578181957353E-13, -1.077689183249670724E-14, 88.00000000000000000 ) ) ;
#241 = APPLICATION_CONTEXT ( 'configuration controlled 3d designs of mechanical parts and assemblies' ) ;
#242 = AXIS2_PLACEMENT_3D ( 'NONE', #32, #152, #197 ) ;
#243 = PERSON_AND_ORGANIZATION_ROLE ( 'creator' ) ;
#244 = DATE_AND_TIME ( #19, #246 ) ;
#245 = ORIENTED_EDGE ( 'NONE', *, *, #228, .F. ) ;
#246 = LOCAL_TIME ( 11, 34, 15.00000000000000000, #37 ) ;
#247 = EDGE_LOOP ( 'NONE', ( #182 ) ) ;
#248 = CC_DESIGN_PERSON_AND_ORGANIZATION_ASSIGNMENT ( #202, #98, ( #200 ) ) ;
#249 = DIRECTION ( 'NONE',  ( 3.491481338843133355E-15, -1.224646799147353207E-16, 1.000000000000000000 ) ) ;
#250 = AXIS2_PLACEMENT_3D ( 'NONE', #74, #133, #12 ) ;
#251 = FACE_OUTER_BOUND ( 'NONE', #7, .T. ) ;
#252 = CARTESIAN_POINT ( 'NONE',  ( 1.745740669421566678E-13, 6.123233995736771292E-14, 50.00000000000000000 ) ) ;
#253 = AXIS2_PLACEMENT_3D ( 'NONE', #255, #235, #146 ) ;
#254 = APPROVAL ( #115, 'UNSPECIFIED' ) ;
#255 = CARTESIAN_POINT ( 'NONE',  ( 4.225394308775720049E-15, 1.482068816410225595E-15, 1.210201028935117051 ) ) ;
#256 = CARTESIAN_POINT ( 'NONE',  ( 1.745740669421566678E-13, -4.164999999999900560, 50.00000000000000000 ) ) ;
#257 = DIRECTION ( 'NONE',  ( -3.491481338843133355E-15, -1.224646799147354045E-15, -1.000000000000000000 ) ) ;
#258 = CARTESIAN_POINT ( 'NONE',  ( 1.745740669421566678E-13, -4.164999999999900560, 50.00000000000000000 ) ) ;
#259 = PLANE ( 'NONE',  #66 ) ;
#260 = APPLICATION_PROTOCOL_DEFINITION ( 'international standard', 'config_control_design', 1994, #5 ) ;
#261 = APPROVAL_DATE_TIME ( #244, #18 ) ;
#262 = DIRECTION ( 'NONE',  ( -3.491481338843133355E-15, 1.224646799147353207E-16, -1.000000000000000000 ) ) ;
#263 = PERSON_AND_ORGANIZATION_ROLE ( 'classification_officer' ) ;
ENDSEC;
END-ISO-10303-21;
