ISO-10303-21;
HEADER;
FILE_DESCRIPTION (( 'STEP AP203' ),
    '1' );
FILE_NAME ('62882.step',
    '2021-10-15T09:34:14',
    ( '' ),
    ( '' ),
    'SwSTEP 2.0',
    'SolidWorks 2019',
    '' );
FILE_SCHEMA (( 'CONFIG_CONTROL_DESIGN' ));
ENDSEC;

DATA;
#1 = CARTESIAN_POINT ( 'NONE',  ( 1.745740669421566678E-13, -3.999999999999900524, 50.00000000000000000 ) ) ;
#2 = PERSON_AND_ORGANIZATION ( #55, #198 ) ;
#3 = MECHANICAL_CONTEXT ( 'NONE', #134, 'mechanical' ) ;
#4 = EDGE_LOOP ( 'NONE', ( #24 ) ) ;
#5 = CALENDAR_DATE ( 2021, 15, 10 ) ;
#6 = CONICAL_SURFACE ( 'NONE', #159, 4.000000000000001776, 0.7853981633974473908 ) ;
#7 = EDGE_CURVE ( 'NONE', #233, #233, #260, .T. ) ;
#8 = FACE_OUTER_BOUND ( 'NONE', #45, .T. ) ;
#9 = APPROVAL ( #41, 'UNSPECIFIED' ) ;
#10 = CONICAL_SURFACE ( 'NONE', #75, 3.999999999999998224, 1.082104136236485381 ) ;
#11 = CARTESIAN_POINT ( 'NONE',  ( -3.491481338843130200E-15, -1.224646799147353059E-15, -0.9999999999999991118 ) ) ;
#12 = LOCAL_TIME ( 11, 34, 14.00000000000000000, #244 ) ;
#13 = DIRECTION ( 'NONE',  ( 0.0000000000000000000, 1.000000000000000000, 0.0000000000000000000 ) ) ;
#14 = CC_DESIGN_DATE_AND_TIME_ASSIGNMENT ( #28, #148, ( #44 ) ) ;
#15 = DIRECTION ( 'NONE',  ( 4.333342374871282771E-30, -1.000000000000000000, 1.219727444046193080E-15 ) ) ;
#16 = CARTESIAN_POINT ( 'NONE',  ( 3.107418391570388560E-13, 2.999519565323699889E-32, 89.00000000000000000 ) ) ;
#17 = CARTESIAN_POINT ( 'NONE',  ( 5.551707745337701149E-15, 3.999999999999999112, 1.590072294981018652 ) ) ;
#18 = DIRECTION ( 'NONE',  ( 1.000000000000000000, 0.0000000000000000000, 0.0000000000000000000 ) ) ;
#19 = ADVANCED_FACE ( 'NONE', ( #152, #237 ), #10, .T. ) ;
#20 =( NAMED_UNIT ( * ) SI_UNIT ( $, .STERADIAN. ) SOLID_ANGLE_UNIT ( ) );
#21 = COORDINATED_UNIVERSAL_TIME_OFFSET ( 1, 0, .AHEAD. ) ;
#22 = EDGE_CURVE ( 'NONE', #115, #115, #66, .T. ) ;
#23 = PERSON_AND_ORGANIZATION ( #55, #198 ) ;
#24 = ORIENTED_EDGE ( 'NONE', *, *, #47, .T. ) ;
#25 = CALENDAR_DATE ( 2021, 15, 10 ) ;
#26 = EDGE_LOOP ( 'NONE', ( #169 ) ) ;
#27 = AXIS2_PLACEMENT_3D ( 'NONE', #39, #242, #18 ) ;
#28 = DATE_AND_TIME ( #25, #67 ) ;
#29 = ORIENTED_EDGE ( 'NONE', *, *, #22, .T. ) ;
#30 = CC_DESIGN_PERSON_AND_ORGANIZATION_ASSIGNMENT ( #188, #88, ( #44 ) ) ;
#31 = ORIENTED_EDGE ( 'NONE', *, *, #158, .F. ) ;
#32 = DIRECTION ( 'NONE',  ( -6.162975822039269636E-30, 1.000000000000000000, -1.734723475976839438E-15 ) ) ;
#33 = FACE_BOUND ( 'NONE', #246, .T. ) ;
#34 = CARTESIAN_POINT ( 'NONE',  ( 0.0000000000000000000, 0.0000000000000000000, 0.0000000000000000000 ) ) ;
#35 = CARTESIAN_POINT ( 'NONE',  ( 1.980788967089277345E-13, -4.999999999999929834, 56.73205080756901708 ) ) ;
#36 = DIRECTION ( 'NONE',  ( -4.333342374871282771E-30, 1.000000000000000000, -1.219727444046193080E-15 ) ) ;
#37 = DIRECTION ( 'NONE',  ( 0.0000000000000000000, 1.000000000000000000, 0.0000000000000000000 ) ) ;
#38 = PERSON_AND_ORGANIZATION_ROLE ( 'creator' ) ;
#39 = CARTESIAN_POINT ( 'NONE',  ( 0.0000000000000000000, 0.0000000000000000000, 0.0000000000000000000 ) ) ;
#40 = CALENDAR_DATE ( 2021, 15, 10 ) ;
#41 = APPROVAL_STATUS ( 'not_yet_approved' ) ;
#42 = ORIENTED_EDGE ( 'NONE', *, *, #7, .T. ) ;
#43 = ORIENTED_EDGE ( 'NONE', *, *, #47, .F. ) ;
#44 = SECURITY_CLASSIFICATION ( '', '', #226 ) ;
#45 = EDGE_LOOP ( 'NONE', ( #65 ) ) ;
#46 = ORIENTED_EDGE ( 'NONE', *, *, #103, .F. ) ;
#47 = EDGE_CURVE ( 'NONE', #126, #126, #182, .T. ) ;
#48 = FACE_OUTER_BOUND ( 'NONE', #26, .T. ) ;
#49 = PLANE ( 'NONE',  #63 ) ;
#50 = DIRECTION ( 'NONE',  ( 4.930380657631324484E-30, -1.000000000000000000, 1.387778780781445873E-15 ) ) ;
#51 = DIRECTION ( 'NONE',  ( -3.491481338843133355E-15, 1.224646799147353207E-16, -1.000000000000000000 ) ) ;
#52 = CARTESIAN_POINT ( 'NONE',  ( 1.745740669421566678E-13, 6.123233995736771292E-14, 50.00000000000000000 ) ) ;
#53 = CIRCLE ( 'NONE', #145, 3.999999999999961808 ) ;
#54 = CARTESIAN_POINT ( 'NONE',  ( 1.745740669421566678E-13, 3.749399456654632525E-32, 50.00000000000000000 ) ) ;
#55 = PERSON ( 'UNSPECIFIED', 'UNSPECIFIED', 'UNSPECIFIED', ('UNSPECIFIED'), ('UNSPECIFIED'), ('UNSPECIFIED') ) ;
#56 = DIRECTION ( 'NONE',  ( -3.491481338843133355E-15, 1.224646799147353207E-16, -1.000000000000000000 ) ) ;
#57 = VERTEX_POINT ( 'NONE', #122 ) ;
#58 = PERSON_AND_ORGANIZATION ( #55, #198 ) ;
#59 = AXIS2_PLACEMENT_3D ( 'NONE', #156, #236, #36 ) ;
#60 = APPROVAL_PERSON_ORGANIZATION ( #167, #225, #221 ) ;
#61 = CARTESIAN_POINT ( 'NONE',  ( 1.920314736363723472E-13, 3.999999999999993339, 55.00000000000000000 ) ) ;
#62 = CALENDAR_DATE ( 2021, 15, 10 ) ;
#63 = AXIS2_PLACEMENT_3D ( 'NONE', #16, #137, #99 ) ;
#64 = EDGE_LOOP ( 'NONE', ( #29 ) ) ;
#65 = ORIENTED_EDGE ( 'NONE', *, *, #158, .T. ) ;
#66 = CIRCLE ( 'NONE', #219, 3.999999999999961808 ) ;
#67 = LOCAL_TIME ( 11, 34, 14.00000000000000000, #247 ) ;
#68 = ORIENTED_EDGE ( 'NONE', *, *, #7, .F. ) ;
#69 = ORIENTED_EDGE ( 'NONE', *, *, #95, .F. ) ;
#70 = AXIS2_PLACEMENT_3D ( 'NONE', #34, #113, #151 ) ;
#71 = LOCAL_TIME ( 11, 34, 14.00000000000000000, #201 ) ;
#72 = CARTESIAN_POINT ( 'NONE',  ( 4.066544898671369612E-15, 1.426351943612848485E-15, 1.164704749651841897 ) ) ;
#73 = FACE_OUTER_BOUND ( 'NONE', #204, .T. ) ;
#74 = CARTESIAN_POINT ( 'NONE',  ( -3.491481338843130200E-15, -1.224646799147353059E-15, -0.9999999999999991118 ) ) ;
#75 = AXIS2_PLACEMENT_3D ( 'NONE', #141, #216, #100 ) ;
#76 = CARTESIAN_POINT ( 'NONE',  ( 2.011026082452047087E-13, 7.053729966927920542E-14, 57.59807621135331601 ) ) ;
#77 = ADVANCED_FACE ( 'NONE', ( #33, #223 ), #211, .T. ) ;
#78 = MANIFOLD_SOLID_BREP ( 'Corps-Déplacer/Copier1[2]', #98 ) ;
#79 = CARTESIAN_POINT ( 'NONE',  ( 1.745740669421566678E-13, 3.749399456654632525E-32, 50.00000000000000000 ) ) ;
#80 = PRODUCT_RELATED_PRODUCT_CATEGORY ( 'detail', '', ( #168 ) ) ;
#81 =( LENGTH_UNIT ( ) NAMED_UNIT ( * ) SI_UNIT ( .MILLI., .METRE. ) );
#82 = CC_DESIGN_APPROVAL ( #123, ( #160 ) ) ;
#83 = ADVANCED_FACE ( 'NONE', ( #209, #174 ), #258, .T. ) ;
#84 = APPLICATION_PROTOCOL_DEFINITION ( 'international standard', 'config_control_design', 1994, #134 ) ;
#85 = APPROVAL_STATUS ( 'not_yet_approved' ) ;
#86 = ORIENTED_EDGE ( 'NONE', *, *, #87, .F. ) ;
#87 = EDGE_CURVE ( 'NONE', #179, #179, #248, .T. ) ;
#88 = PERSON_AND_ORGANIZATION_ROLE ( 'classification_officer' ) ;
#89 = EDGE_LOOP ( 'NONE', ( #187 ) ) ;
#90 = AXIS2_PLACEMENT_3D ( 'NONE', #114, #186, #252 ) ;
#91 = FACE_OUTER_BOUND ( 'NONE', #107, .T. ) ;
#92 = APPROVAL_PERSON_ORGANIZATION ( #2, #9, #214 ) ;
#93 = FACE_OUTER_BOUND ( 'NONE', #249, .T. ) ;
#94 = CARTESIAN_POINT ( 'NONE',  ( 1.920314736363723724E-13, 6.735557395310448295E-14, 55.00000000000000711 ) ) ;
#95 = EDGE_CURVE ( 'NONE', #143, #143, #110, .T. ) ;
#96 = DIRECTION ( 'NONE',  ( 3.491481338843133355E-15, 1.224646799147354045E-15, 1.000000000000000000 ) ) ;
#97 = CC_DESIGN_PERSON_AND_ORGANIZATION_ASSIGNMENT ( #23, #195, ( #160 ) ) ;
#98 = CLOSED_SHELL ( 'NONE', ( #230, #241, #19, #83 ) ) ;
#99 = DIRECTION ( 'NONE',  ( 4.275831445896958607E-31, 1.000000000000000000, 1.224646799147353207E-16 ) ) ;
#100 = DIRECTION ( 'NONE',  ( 4.237045877651920979E-30, -1.000000000000000000, 1.246832498358330691E-15 ) ) ;
#101 = CARTESIAN_POINT ( 'NONE',  ( 4.066544898671355413E-15, 3.199999999999999734, 1.164704749651837901 ) ) ;
#102 = APPROVAL_ROLE ( '' ) ;
#103 = EDGE_CURVE ( 'NONE', #177, #177, #53, .T. ) ;
#104 = CALENDAR_DATE ( 2021, 15, 10 ) ;
#105 = ORIENTED_EDGE ( 'NONE', *, *, #103, .T. ) ;
#106 = APPROVAL_STATUS ( 'not_yet_approved' ) ;
#107 = EDGE_LOOP ( 'NONE', ( #46 ) ) ;
#108 = CARTESIAN_POINT ( 'NONE',  ( 1.980788967089277092E-13, 6.947672443055445780E-14, 56.73205080756900998 ) ) ;
#109 = ORIENTED_EDGE ( 'NONE', *, *, #153, .F. ) ;
#110 = CIRCLE ( 'NONE', #59, 3.199999999999998401 ) ;
#111 = ORIENTED_EDGE ( 'NONE', *, *, #153, .T. ) ;
#112 = CARTESIAN_POINT ( 'NONE',  ( 1.745740669421566678E-13, 6.123233995736771292E-14, 50.00000000000000000 ) ) ;
#113 = DIRECTION ( 'NONE',  ( -3.491481338843133355E-15, 1.224646799147353207E-16, -1.000000000000000000 ) ) ;
#114 = CARTESIAN_POINT ( 'NONE',  ( 5.551707745337717715E-15, 1.947276946461398076E-15, 1.590072294981023759 ) ) ;
#115 = VERTEX_POINT ( 'NONE', #1 ) ;
#116 = DIRECTION ( 'NONE',  ( 0.0000000000000000000, -1.000000000000000000, 0.0000000000000000000 ) ) ;
#117 = DIRECTION ( 'NONE',  ( 3.491481338843133355E-15, 1.224646799147354045E-15, 1.000000000000000000 ) ) ;
#118 = DIRECTION ( 'NONE',  ( -4.237045877651959514E-30, 1.000000000000000000, -1.246832498358341932E-15 ) ) ;
#119 = AXIS2_PLACEMENT_3D ( 'NONE', #11, #254, #150 ) ;
#120 = PERSON_AND_ORGANIZATION ( #55, #198 ) ;
#121 = CARTESIAN_POINT ( 'NONE',  ( 3.072503578181957353E-13, 4.999999999999990230, 88.00000000000000000 ) ) ;
#122 = CARTESIAN_POINT ( 'NONE',  ( 3.107418391570388560E-13, 3.999999999999990674, 89.00000000000000000 ) ) ;
#123 = APPROVAL ( #85, 'UNSPECIFIED' ) ;
#124 = PERSON_AND_ORGANIZATION ( #55, #198 ) ;
#125 = AXIS2_PLACEMENT_3D ( 'NONE', #212, #51, #171 ) ;
#126 = VERTEX_POINT ( 'NONE', #17 ) ;
#127 = CC_DESIGN_PERSON_AND_ORGANIZATION_ASSIGNMENT ( #163, #220, ( #168 ) ) ;
#128 = AXIS2_PLACEMENT_3D ( 'NONE', #79, #229, #193 ) ;
#129 = APPROVAL_PERSON_ORGANIZATION ( #120, #123, #102 ) ;
#130 = CC_DESIGN_DATE_AND_TIME_ASSIGNMENT ( #180, #238, ( #164 ) ) ;
#131 = AXIS2_PLACEMENT_3D ( 'NONE', #72, #117, #15 ) ;
#132 = DIRECTION ( 'NONE',  ( 3.491481338843133355E-15, -1.224646799147353207E-16, 1.000000000000000000 ) ) ;
#133 = CYLINDRICAL_SURFACE ( 'NONE', #70, 4.999999999999999112 ) ;
#134 = APPLICATION_CONTEXT ( 'configuration controlled 3d designs of mechanical parts and assemblies' ) ;
#135 = AXIS2_PLACEMENT_3D ( 'NONE', #74, #173, #118 ) ;
#136 = DIRECTION ( 'NONE',  ( -3.491481338843133355E-15, 1.224646799147353207E-16, -1.000000000000000000 ) ) ;
#137 = DIRECTION ( 'NONE',  ( -3.491481338843133355E-15, 1.224646799147353207E-16, -1.000000000000000000 ) ) ;
#138 =( NAMED_UNIT ( * ) PLANE_ANGLE_UNIT ( ) SI_UNIT ( $, .RADIAN. ) );
#139 = ADVANCED_FACE ( 'NONE', ( #194, #190 ), #6, .T. ) ;
#140 = PERSON_AND_ORGANIZATION_ROLE ( 'design_supplier' ) ;
#141 = CARTESIAN_POINT ( 'NONE',  ( 5.551707745337717715E-15, 1.947276946461398076E-15, 1.590072294981023759 ) ) ;
#142 = CC_DESIGN_PERSON_AND_ORGANIZATION_ASSIGNMENT ( #124, #38, ( #164 ) ) ;
#143 = VERTEX_POINT ( 'NONE', #101 ) ;
#144 = CARTESIAN_POINT ( 'NONE',  ( 1.745740669421566678E-13, -3.999999999999900524, 50.00000000000000000 ) ) ;
#145 = AXIS2_PLACEMENT_3D ( 'NONE', #112, #136, #176 ) ;
#146 = PRODUCT_DEFINITION_SHAPE ( 'NONE', 'NONE',  #164 ) ;
#147 = DATE_AND_TIME ( #5, #71 ) ;
#148 = DATE_TIME_ROLE ( 'classification_date' ) ;
#149 = EDGE_LOOP ( 'NONE', ( #184 ) ) ;
#150 = DIRECTION ( 'NONE',  ( -4.237045877651959514E-30, 1.000000000000000000, -1.246832498358341932E-15 ) ) ;
#151 = DIRECTION ( 'NONE',  ( 4.275831445896958607E-31, 1.000000000000000000, 1.224646799147353207E-16 ) ) ;
#152 = FACE_BOUND ( 'NONE', #197, .T. ) ;
#153 = EDGE_CURVE ( 'NONE', #57, #57, #165, .T. ) ;
#154 = PLANE ( 'NONE',  #128 ) ;
#155 = CIRCLE ( 'NONE', #175, 3.999999999999925393 ) ;
#156 = CARTESIAN_POINT ( 'NONE',  ( 4.066544898671369612E-15, 1.426351943612848485E-15, 1.164704749651841897 ) ) ;
#157 = COORDINATED_UNIVERSAL_TIME_OFFSET ( 1, 0, .AHEAD. ) ;
#158 = EDGE_CURVE ( 'NONE', #215, #215, #155, .T. ) ;
#159 = AXIS2_PLACEMENT_3D ( 'NONE', #261, #56, #13 ) ;
#160 = PRODUCT_DEFINITION_FORMATION_WITH_SPECIFIED_SOURCE ( 'ANY', '', #168, .NOT_KNOWN. ) ;
#161 = APPROVAL_DATE_TIME ( #196, #123 ) ;
#162 = UNCERTAINTY_MEASURE_WITH_UNIT (LENGTH_MEASURE( 1.000000000000000082E-05 ), #81, 'distance_accuracy_value', 'NONE');
#163 = PERSON_AND_ORGANIZATION ( #55, #198 ) ;
#164 = PRODUCT_DEFINITION ( 'UNKNOWN', '', #160, #218 ) ;
#165 = CIRCLE ( 'NONE', #125, 4.000000000000001776 ) ;
#166 = EDGE_LOOP ( 'NONE', ( #111 ) ) ;
#167 = PERSON_AND_ORGANIZATION ( #55, #198 ) ;
#168 = PRODUCT ( '62882', '62882', '', ( #3 ) ) ;
#169 = ORIENTED_EDGE ( 'NONE', *, *, #22, .F. ) ;
#170 = CYLINDRICAL_SURFACE ( 'NONE', #119, 3.999999999999961808 ) ;
#171 = DIRECTION ( 'NONE',  ( 0.0000000000000000000, 1.000000000000000000, 0.0000000000000000000 ) ) ;
#172 = ADVANCED_FACE ( 'NONE', ( #93 ), #49, .F. ) ;
#173 = DIRECTION ( 'NONE',  ( -3.491481338843133355E-15, -1.224646799147354045E-15, -1.000000000000000000 ) ) ;
#174 = FACE_OUTER_BOUND ( 'NONE', #250, .T. ) ;
#175 = AXIS2_PLACEMENT_3D ( 'NONE', #94, #257, #32 ) ;
#176 = DIRECTION ( 'NONE',  ( 0.0000000000000000000, -1.000000000000000000, 0.0000000000000000000 ) ) ;
#177 = VERTEX_POINT ( 'NONE', #144 ) ;
#178 = AXIS2_PLACEMENT_3D ( 'NONE', #108, #232, #50 ) ;
#179 = VERTEX_POINT ( 'NONE', #121 ) ;
#180 = DATE_AND_TIME ( #104, #191 ) ;
#181 = APPROVAL_DATE_TIME ( #262, #9 ) ;
#182 = CIRCLE ( 'NONE', #90, 3.999999999999997335 ) ;
#183 = CLOSED_SHELL ( 'NONE', ( #263, #139, #172, #256, #77, #208 ) ) ;
#184 = ORIENTED_EDGE ( 'NONE', *, *, #87, .T. ) ;
#185 = SHAPE_DEFINITION_REPRESENTATION ( #146, #222 ) ;
#186 = DIRECTION ( 'NONE',  ( -3.491481338843133355E-15, -1.224646799147354045E-15, -1.000000000000000000 ) ) ;
#187 = ORIENTED_EDGE ( 'NONE', *, *, #95, .T. ) ;
#188 = PERSON_AND_ORGANIZATION ( #55, #198 ) ;
#189 = FACE_OUTER_BOUND ( 'NONE', #200, .T. ) ;
#190 = FACE_BOUND ( 'NONE', #166, .T. ) ;
#191 = LOCAL_TIME ( 11, 34, 14.00000000000000000, #21 ) ;
#192 = CARTESIAN_POINT ( 'NONE',  ( 3.072503578181957353E-13, -1.077689183249670724E-14, 88.00000000000000000 ) ) ;
#193 = DIRECTION ( 'NONE',  ( -4.275831445896958607E-31, -1.000000000000000000, -1.224646799147353207E-16 ) ) ;
#194 = FACE_OUTER_BOUND ( 'NONE', #228, .T. ) ;
#195 = PERSON_AND_ORGANIZATION_ROLE ( 'creator' ) ;
#196 = DATE_AND_TIME ( #62, #12 ) ;
#197 = EDGE_LOOP ( 'NONE', ( #69 ) ) ;
#198 = ORGANIZATION ( 'UNSPECIFIED', 'UNSPECIFIED', '' ) ;
#199 = CC_DESIGN_APPROVAL ( #9, ( #164 ) ) ;
#200 = EDGE_LOOP ( 'NONE', ( #105 ) ) ;
#201 = COORDINATED_UNIVERSAL_TIME_OFFSET ( 1, 0, .AHEAD. ) ;
#202 = APPROVAL_DATE_TIME ( #147, #225 ) ;
#203 = APPLICATION_CONTEXT ( 'configuration controlled 3d designs of mechanical parts and assemblies' ) ;
#204 = EDGE_LOOP ( 'NONE', ( #42 ) ) ;
#205 = CC_DESIGN_PERSON_AND_ORGANIZATION_ASSIGNMENT ( #58, #140, ( #160 ) ) ;
#206 = AXIS2_PLACEMENT_3D ( 'NONE', #54, #132, #207 ) ;
#207 = DIRECTION ( 'NONE',  ( -4.275831445896958607E-31, -1.000000000000000000, -1.224646799147353207E-16 ) ) ;
#208 = ADVANCED_FACE ( 'NONE', ( #189 ), #154, .F. ) ;
#209 = FACE_OUTER_BOUND ( 'NONE', #64, .T. ) ;
#210 = FACE_OUTER_BOUND ( 'NONE', #89, .T. ) ;
#211 = CONICAL_SURFACE ( 'NONE', #235, 5.499999999999922728, 0.5235987755982993708 ) ;
#212 = CARTESIAN_POINT ( 'NONE',  ( 3.107418391570388560E-13, -1.089935651241144239E-14, 89.00000000000000000 ) ) ;
#213 = DIRECTION ( 'NONE',  ( 4.482164234210357280E-30, -1.000000000000000000, 1.261617073437695600E-15 ) ) ;
#214 = APPROVAL_ROLE ( '' ) ;
#215 = VERTEX_POINT ( 'NONE', #61 ) ;
#216 = DIRECTION ( 'NONE',  ( 3.491481338843133355E-15, 1.224646799147354045E-15, 1.000000000000000000 ) ) ;
#217 = DIRECTION ( 'NONE',  ( -3.491481338843133355E-15, 1.224646799147353207E-16, -1.000000000000000000 ) ) ;
#218 = DESIGN_CONTEXT ( 'detailed design', #203, 'design' ) ;
#219 = AXIS2_PLACEMENT_3D ( 'NONE', #52, #217, #116 ) ;
#220 = PERSON_AND_ORGANIZATION_ROLE ( 'design_owner' ) ;
#221 = APPROVAL_ROLE ( '' ) ;
#222 = ADVANCED_BREP_SHAPE_REPRESENTATION ( '62882', ( #251, #78, #27 ), #253 ) ;
#223 = FACE_OUTER_BOUND ( 'NONE', #227, .T. ) ;
#224 = CC_DESIGN_APPROVAL ( #225, ( #44 ) ) ;
#225 = APPROVAL ( #106, 'UNSPECIFIED' ) ;
#226 = SECURITY_CLASSIFICATION_LEVEL ( 'unclassified' ) ;
#227 = EDGE_LOOP ( 'NONE', ( #68 ) ) ;
#228 = EDGE_LOOP ( 'NONE', ( #86 ) ) ;
#229 = DIRECTION ( 'NONE',  ( 3.491481338843133355E-15, -1.224646799147353207E-16, 1.000000000000000000 ) ) ;
#230 = ADVANCED_FACE ( 'NONE', ( #48 ), #234, .T. ) ;
#231 = FACE_OUTER_BOUND ( 'NONE', #149, .T. ) ;
#232 = DIRECTION ( 'NONE',  ( 3.491481338843133355E-15, 1.224646799147354045E-15, 1.000000000000000000 ) ) ;
#233 = VERTEX_POINT ( 'NONE', #35 ) ;
#234 = PLANE ( 'NONE',  #206 ) ;
#235 = AXIS2_PLACEMENT_3D ( 'NONE', #76, #96, #213 ) ;
#236 = DIRECTION ( 'NONE',  ( -3.491481338843133355E-15, -1.224646799147354045E-15, -1.000000000000000000 ) ) ;
#237 = FACE_OUTER_BOUND ( 'NONE', #4, .T. ) ;
#238 = DATE_TIME_ROLE ( 'creation_date' ) ;
#239 = CONICAL_SURFACE ( 'NONE', #131, 3.199999999999998401, 1.221730476396032161 ) ;
#240 = LOCAL_TIME ( 11, 34, 14.00000000000000000, #157 ) ;
#241 = ADVANCED_FACE ( 'NONE', ( #210 ), #239, .T. ) ;
#242 = DIRECTION ( 'NONE',  ( 0.0000000000000000000, 0.0000000000000000000, 1.000000000000000000 ) ) ;
#243 = APPLICATION_PROTOCOL_DEFINITION ( 'international standard', 'config_control_design', 1994, #203 ) ;
#244 = COORDINATED_UNIVERSAL_TIME_OFFSET ( 1, 0, .AHEAD. ) ;
#245 = AXIS2_PLACEMENT_3D ( 'NONE', #192, #259, #37 ) ;
#246 = EDGE_LOOP ( 'NONE', ( #31 ) ) ;
#247 = COORDINATED_UNIVERSAL_TIME_OFFSET ( 1, 0, .AHEAD. ) ;
#248 = CIRCLE ( 'NONE', #245, 5.000000000000000888 ) ;
#249 = EDGE_LOOP ( 'NONE', ( #109 ) ) ;
#250 = EDGE_LOOP ( 'NONE', ( #43 ) ) ;
#251 = MANIFOLD_SOLID_BREP ( 'Corps-Déplacer/Copier1[1]', #183 ) ;
#252 = DIRECTION ( 'NONE',  ( -4.237045877651921679E-30, 1.000000000000000000, -1.246832498358330888E-15 ) ) ;
#253 =( GEOMETRIC_REPRESENTATION_CONTEXT ( 3 ) GLOBAL_UNCERTAINTY_ASSIGNED_CONTEXT ( ( #162 ) ) GLOBAL_UNIT_ASSIGNED_CONTEXT ( ( #81, #138, #20 ) ) REPRESENTATION_CONTEXT ( 'NONE', 'WORKASPACE' ) );
#254 = DIRECTION ( 'NONE',  ( -3.491481338843133355E-15, -1.224646799147354045E-15, -1.000000000000000000 ) ) ;
#255 = CC_DESIGN_SECURITY_CLASSIFICATION ( #44, ( #160 ) ) ;
#256 = ADVANCED_FACE ( 'NONE', ( #8, #91 ), #170, .T. ) ;
#257 = DIRECTION ( 'NONE',  ( -3.491481338843133355E-15, -1.224646799147354045E-15, -1.000000000000000000 ) ) ;
#258 = CYLINDRICAL_SURFACE ( 'NONE', #135, 3.999999999999961808 ) ;
#259 = DIRECTION ( 'NONE',  ( -3.491481338843133355E-15, 1.224646799147353207E-16, -1.000000000000000000 ) ) ;
#260 = CIRCLE ( 'NONE', #178, 4.999999999999999112 ) ;
#261 = CARTESIAN_POINT ( 'NONE',  ( 3.107418391570388560E-13, -1.089935651241144239E-14, 89.00000000000000000 ) ) ;
#262 = DATE_AND_TIME ( #40, #240 ) ;
#263 = ADVANCED_FACE ( 'NONE', ( #73, #231 ), #133, .T. ) ;
ENDSEC;
END-ISO-10303-21;
