ISO-10303-21;
HEADER;
FILE_DESCRIPTION (( 'STEP AP203' ),
    '1' );
FILE_NAME ('62880.step',
    '2021-10-15T09:34:13',
    ( '' ),
    ( '' ),
    'SwSTEP 2.0',
    'SolidWorks 2019',
    '' );
FILE_SCHEMA (( 'CONFIG_CONTROL_DESIGN' ));
ENDSEC;

DATA;
#1 = CIRCLE ( 'NONE', #104, 4.000000000000000000 ) ;
#2 = AXIS2_PLACEMENT_3D ( 'NONE', #34, #52, #192 ) ;
#3 = ADVANCED_FACE ( 'NONE', ( #262, #49 ), #151, .T. ) ;
#4 = PLANE ( 'NONE',  #175 ) ;
#5 = DIRECTION ( 'NONE',  ( 3.491481338843133355E-15, 1.224646799147354045E-15, 1.000000000000000000 ) ) ;
#6 = DIRECTION ( 'NONE',  ( 3.491481338843133355E-15, -1.224646799147353207E-16, 1.000000000000000000 ) ) ;
#7 = CYLINDRICAL_SURFACE ( 'NONE', #2, 3.749999999999968470 ) ;
#8 = CC_DESIGN_APPROVAL ( #12, ( #231 ) ) ;
#9 = APPLICATION_PROTOCOL_DEFINITION ( 'international standard', 'config_control_design', 1994, #179 ) ;
#10 = CARTESIAN_POINT ( 'NONE',  ( 1.396592535537253342E-13, -3.749999999999919620, 40.00000000000000000 ) ) ;
#11 = VERTEX_POINT ( 'NONE', #251 ) ;
#12 = APPROVAL ( #72, 'UNSPECIFIED' ) ;
#13 = DIRECTION ( 'NONE',  ( 3.491481338843133355E-15, 1.224646799147354045E-15, 1.000000000000000000 ) ) ;
#14 = APPROVAL_ROLE ( '' ) ;
#15 = EDGE_CURVE ( 'NONE', #117, #117, #1, .T. ) ;
#16 = COORDINATED_UNIVERSAL_TIME_OFFSET ( 1, 0, .AHEAD. ) ;
#17 = CIRCLE ( 'NONE', #149, 2.999999999999998224 ) ;
#18 = APPROVAL_ROLE ( '' ) ;
#19 = EDGE_LOOP ( 'NONE', ( #60 ) ) ;
#20 = CALENDAR_DATE ( 2021, 15, 10 ) ;
#21 = ADVANCED_FACE ( 'NONE', ( #130, #84 ), #248, .T. ) ;
#22 = CIRCLE ( 'NONE', #217, 3.749999999999968470 ) ;
#23 = LOCAL_TIME ( 11, 34, 13.00000000000000000, #237 ) ;
#24 = CARTESIAN_POINT ( 'NONE',  ( 0.0000000000000000000, 0.0000000000000000000, 0.0000000000000000000 ) ) ;
#25 = DIRECTION ( 'NONE',  ( -4.314083075427410413E-30, 1.000000000000000000, -1.214306433183765558E-15 ) ) ;
#26 = ADVANCED_FACE ( 'NONE', ( #28 ), #108, .F. ) ;
#27 = DIRECTION ( 'NONE',  ( 6.162975822039154730E-30, -1.000000000000000000, 1.734723475976807094E-15 ) ) ;
#28 = FACE_OUTER_BOUND ( 'NONE', #223, .T. ) ;
#29 = CARTESIAN_POINT ( 'NONE',  ( 1.396592535537253342E-13, 2.999519565323705910E-32, 40.00000000000000000 ) ) ;
#30 = MANIFOLD_SOLID_BREP ( 'Corps-Déplacer/Copier1[1]', #94 ) ;
#31 = EDGE_CURVE ( 'NONE', #11, #11, #22, .T. ) ;
#32 = CARTESIAN_POINT ( 'NONE',  ( -3.491481338843130200E-15, -1.224646799147353059E-15, -0.9999999999999991118 ) ) ;
#33 = APPLICATION_PROTOCOL_DEFINITION ( 'international standard', 'config_control_design', 1994, #204 ) ;
#34 = CARTESIAN_POINT ( 'NONE',  ( -3.491481338843130200E-15, -1.224646799147353059E-15, -0.9999999999999991118 ) ) ;
#35 = FACE_OUTER_BOUND ( 'NONE', #41, .T. ) ;
#36 = LOCAL_TIME ( 11, 34, 13.00000000000000000, #145 ) ;
#37 = DATE_AND_TIME ( #141, #191 ) ;
#38 = PERSON_AND_ORGANIZATION ( #153, #42 ) ;
#39 = DATE_AND_TIME ( #20, #36 ) ;
#40 = ORIENTED_EDGE ( 'NONE', *, *, #119, .T. ) ;
#41 = EDGE_LOOP ( 'NONE', ( #124 ) ) ;
#42 = ORGANIZATION ( 'UNSPECIFIED', 'UNSPECIFIED', '' ) ;
#43 = FACE_OUTER_BOUND ( 'NONE', #59, .T. ) ;
#44 = EDGE_CURVE ( 'NONE', #113, #113, #109, .T. ) ;
#45 = FACE_OUTER_BOUND ( 'NONE', #144, .T. ) ;
#46 = ORIENTED_EDGE ( 'NONE', *, *, #172, .T. ) ;
#47 = SECURITY_CLASSIFICATION ( '', '', #184 ) ;
#48 = DIRECTION ( 'NONE',  ( 3.491481338843133355E-15, 1.224646799147354045E-15, 1.000000000000000000 ) ) ;
#49 = FACE_OUTER_BOUND ( 'NONE', #164, .T. ) ;
#50 = CARTESIAN_POINT ( 'NONE',  ( 3.812385842504408124E-15, 1.337204947137045307E-15, 1.091910702798601696 ) ) ;
#51 = AXIS2_PLACEMENT_3D ( 'NONE', #24, #106, #185 ) ;
#52 = DIRECTION ( 'NONE',  ( -3.491481338843133355E-15, -1.224646799147354045E-15, -1.000000000000000000 ) ) ;
#53 = CARTESIAN_POINT ( 'NONE',  ( 1.571166602479409884E-13, 3.749999999999994671, 45.00000000000000000 ) ) ;
#54 = CC_DESIGN_APPROVAL ( #68, ( #47 ) ) ;
#55 = APPROVAL_STATUS ( 'not_yet_approved' ) ;
#56 = ORIENTED_EDGE ( 'NONE', *, *, #91, .F. ) ;
#57 = CIRCLE ( 'NONE', #206, 4.000000000000001776 ) ;
#58 = APPROVAL_ROLE ( '' ) ;
#59 = EDGE_LOOP ( 'NONE', ( #61 ) ) ;
#60 = ORIENTED_EDGE ( 'NONE', *, *, #15, .F. ) ;
#61 = ORIENTED_EDGE ( 'NONE', *, *, #215, .F. ) ;
#62 = CC_DESIGN_APPROVAL ( #167, ( #216 ) ) ;
#63 = DIRECTION ( 'NONE',  ( -3.491481338843133355E-15, -1.224646799147354045E-15, -1.000000000000000000 ) ) ;
#64 = CARTESIAN_POINT ( 'NONE',  ( 5.204726011254110949E-15, 1.825572137307560351E-15, 1.490692776544709774 ) ) ;
#65 = DIRECTION ( 'NONE',  ( 4.275831445896958607E-31, 1.000000000000000000, 1.224646799147353207E-16 ) ) ;
#66 = CC_DESIGN_PERSON_AND_ORGANIZATION_ASSIGNMENT ( #38, #120, ( #216 ) ) ;
#67 = PERSON_AND_ORGANIZATION ( #153, #42 ) ;
#68 = APPROVAL ( #165, 'UNSPECIFIED' ) ;
#69 = AXIS2_PLACEMENT_3D ( 'NONE', #64, #63, #25 ) ;
#70 = MECHANICAL_CONTEXT ( 'NONE', #179, 'mechanical' ) ;
#71 = ADVANCED_FACE ( 'NONE', ( #45 ), #4, .F. ) ;
#72 = APPROVAL_STATUS ( 'not_yet_approved' ) ;
#73 = AXIS2_PLACEMENT_3D ( 'NONE', #168, #243, #89 ) ;
#74 = PERSON_AND_ORGANIZATION ( #153, #42 ) ;
#75 = PERSON_AND_ORGANIZATION_ROLE ( 'creator' ) ;
#76 = ADVANCED_BREP_SHAPE_REPRESENTATION ( '62880', ( #30, #200, #249 ), #157 ) ;
#77 = CC_DESIGN_PERSON_AND_ORGANIZATION_ASSIGNMENT ( #195, #261, ( #47 ) ) ;
#78 = ORIENTED_EDGE ( 'NONE', *, *, #209, .T. ) ;
#79 = AXIS2_PLACEMENT_3D ( 'NONE', #187, #166, #148 ) ;
#80 = CIRCLE ( 'NONE', #260, 3.749999999999968470 ) ;
#81 = DESIGN_CONTEXT ( 'detailed design', #204, 'design' ) ;
#82 = DATE_TIME_ROLE ( 'classification_date' ) ;
#83 = EDGE_LOOP ( 'NONE', ( #46 ) ) ;
#84 = FACE_OUTER_BOUND ( 'NONE', #239, .T. ) ;
#85 = FACE_OUTER_BOUND ( 'NONE', #133, .T. ) ;
#86 = AXIS2_PLACEMENT_3D ( 'NONE', #188, #111, #263 ) ;
#87 = ORIENTED_EDGE ( 'NONE', *, *, #44, .T. ) ;
#88 = DIRECTION ( 'NONE',  ( -4.275831445896958607E-31, -1.000000000000000000, -1.224646799147353207E-16 ) ) ;
#89 = DIRECTION ( 'NONE',  ( -6.573840876841870610E-30, 1.000000000000000000, -1.850371707708623948E-15 ) ) ;
#90 = DIRECTION ( 'NONE',  ( 0.0000000000000000000, -1.000000000000000000, 0.0000000000000000000 ) ) ;
#91 = EDGE_CURVE ( 'NONE', #208, #208, #57, .T. ) ;
#92 = DIRECTION ( 'NONE',  ( -4.314083075427444745E-30, 1.000000000000000000, -1.214306433183775221E-15 ) ) ;
#93 = CARTESIAN_POINT ( 'NONE',  ( 3.812385842504395502E-15, 2.999999999999999556, 1.091910702798597921 ) ) ;
#94 = CLOSED_SHELL ( 'NONE', ( #3, #127, #71, #230, #189, #26 ) ) ;
#95 = DIRECTION ( 'NONE',  ( 5.478200730701545295E-30, -1.000000000000000000, 1.541976423090516144E-15 ) ) ;
#96 = ADVANCED_FACE ( 'NONE', ( #43 ), #244, .T. ) ;
#97 = COORDINATED_UNIVERSAL_TIME_OFFSET ( 1, 0, .AHEAD. ) ;
#98 = EDGE_LOOP ( 'NONE', ( #134 ) ) ;
#99 = CALENDAR_DATE ( 2021, 15, 10 ) ;
#100 = APPROVAL_PERSON_ORGANIZATION ( #101, #68, #14 ) ;
#101 = PERSON_AND_ORGANIZATION ( #153, #42 ) ;
#102 = EDGE_LOOP ( 'NONE', ( #221 ) ) ;
#103 = PERSON_AND_ORGANIZATION ( #153, #42 ) ;
#104 = AXIS2_PLACEMENT_3D ( 'NONE', #228, #203, #27 ) ;
#105 = CONICAL_SURFACE ( 'NONE', #110, 4.499999999999938716, 0.5235987755982987046 ) ;
#106 = DIRECTION ( 'NONE',  ( -3.491481338843133355E-15, 1.224646799147353207E-16, -1.000000000000000000 ) ) ;
#107 = FACE_BOUND ( 'NONE', #196, .T. ) ;
#108 = PLANE ( 'NONE',  #136 ) ;
#109 = CIRCLE ( 'NONE', #79, 3.200000000000001510 ) ;
#110 = AXIS2_PLACEMENT_3D ( 'NONE', #250, #13, #95 ) ;
#111 = DIRECTION ( 'NONE',  ( -3.491481338843133355E-15, 1.224646799147353207E-16, -1.000000000000000000 ) ) ;
#112 = CARTESIAN_POINT ( 'NONE',  ( 2.730338406975330410E-13, -9.576737969332300892E-15, 78.19999999999998863 ) ) ;
#113 = VERTEX_POINT ( 'NONE', #139 ) ;
#114 = DIRECTION ( 'NONE',  ( 1.000000000000000000, 0.0000000000000000000, 0.0000000000000000000 ) ) ;
#115 = VERTEX_POINT ( 'NONE', #93 ) ;
#116 = DIRECTION ( 'NONE',  ( -3.491481338843133355E-15, -1.224646799147354045E-15, -1.000000000000000000 ) ) ;
#117 = VERTEX_POINT ( 'NONE', #232 ) ;
#118 = CIRCLE ( 'NONE', #73, 3.749999999999939604 ) ;
#119 = EDGE_CURVE ( 'NONE', #173, #173, #259, .T. ) ;
#120 = PERSON_AND_ORGANIZATION_ROLE ( 'creator' ) ;
#121 = DATE_TIME_ROLE ( 'creation_date' ) ;
#122 = ORIENTED_EDGE ( 'NONE', *, *, #91, .T. ) ;
#123 = CC_DESIGN_PERSON_AND_ORGANIZATION_ASSIGNMENT ( #103, #162, ( #231 ) ) ;
#124 = ORIENTED_EDGE ( 'NONE', *, *, #31, .F. ) ;
#125 = CALENDAR_DATE ( 2021, 15, 10 ) ;
#126 = ORIENTED_EDGE ( 'NONE', *, *, #209, .F. ) ;
#127 = ADVANCED_FACE ( 'NONE', ( #224, #107 ), #213, .T. ) ;
#128 = UNCERTAINTY_MEASURE_WITH_UNIT (LENGTH_MEASURE( 1.000000000000000082E-05 ), #174, 'distance_accuracy_value', 'NONE');
#129 = CARTESIAN_POINT ( 'NONE',  ( 1.396592535537253342E-13, 2.999519565323705910E-32, 40.00000000000000000 ) ) ;
#130 = FACE_BOUND ( 'NONE', #163, .T. ) ;
#131 = ADVANCED_FACE ( 'NONE', ( #85 ), #142, .T. ) ;
#132 = CARTESIAN_POINT ( 'NONE',  ( 5.204726011254110949E-15, 1.825572137307560351E-15, 1.490692776544709774 ) ) ;
#133 = EDGE_LOOP ( 'NONE', ( #78 ) ) ;
#134 = ORIENTED_EDGE ( 'NONE', *, *, #119, .F. ) ;
#135 = CARTESIAN_POINT ( 'NONE',  ( 2.730338406975330410E-13, 3.999999999999992450, 78.19999999999998863 ) ) ;
#136 = AXIS2_PLACEMENT_3D ( 'NONE', #29, #6, #88 ) ;
#137 = DIRECTION ( 'NONE',  ( -3.491481338843133355E-15, -1.224646799147354045E-15, -1.000000000000000000 ) ) ;
#138 =( NAMED_UNIT ( * ) SI_UNIT ( $, .STERADIAN. ) SOLID_ANGLE_UNIT ( ) );
#139 = CARTESIAN_POINT ( 'NONE',  ( 2.758270257686075477E-13, 3.199999999999991740, 79.00000000000000000 ) ) ;
#140 = AXIS2_PLACEMENT_3D ( 'NONE', #132, #5, #247 ) ;
#141 = CALENDAR_DATE ( 2021, 15, 10 ) ;
#142 = CONICAL_SURFACE ( 'NONE', #161, 2.999999999999998224, 1.221730476396032161 ) ;
#143 = CC_DESIGN_PERSON_AND_ORGANIZATION_ASSIGNMENT ( #67, #156, ( #252 ) ) ;
#144 = EDGE_LOOP ( 'NONE', ( #234 ) ) ;
#145 = COORDINATED_UNIVERSAL_TIME_OFFSET ( 1, 0, .AHEAD. ) ;
#146 = ORIENTED_EDGE ( 'NONE', *, *, #31, .T. ) ;
#147 = EDGE_LOOP ( 'NONE', ( #56 ) ) ;
#148 = DIRECTION ( 'NONE',  ( 0.0000000000000000000, 1.000000000000000000, 0.0000000000000000000 ) ) ;
#149 = AXIS2_PLACEMENT_3D ( 'NONE', #50, #137, #212 ) ;
#150 = FACE_OUTER_BOUND ( 'NONE', #257, .T. ) ;
#151 = CYLINDRICAL_SURFACE ( 'NONE', #51, 4.000000000000000000 ) ;
#152 = DIRECTION ( 'NONE',  ( -4.275831445896958607E-31, -1.000000000000000000, -1.224646799147353207E-16 ) ) ;
#153 = PERSON ( 'UNSPECIFIED', 'UNSPECIFIED', 'UNSPECIFIED', ('UNSPECIFIED'), ('UNSPECIFIED'), ('UNSPECIFIED') ) ;
#154 = APPROVAL_PERSON_ORGANIZATION ( #74, #167, #58 ) ;
#155 = DIRECTION ( 'NONE',  ( 0.0000000000000000000, -1.000000000000000000, 0.0000000000000000000 ) ) ;
#156 = PERSON_AND_ORGANIZATION_ROLE ( 'design_owner' ) ;
#157 =( GEOMETRIC_REPRESENTATION_CONTEXT ( 3 ) GLOBAL_UNCERTAINTY_ASSIGNED_CONTEXT ( ( #128 ) ) GLOBAL_UNIT_ASSIGNED_CONTEXT ( ( #174, #178, #138 ) ) REPRESENTATION_CONTEXT ( 'NONE', 'WORKASPACE' ) );
#158 = FACE_OUTER_BOUND ( 'NONE', #83, .T. ) ;
#159 = FACE_BOUND ( 'NONE', #102, .T. ) ;
#160 = CC_DESIGN_SECURITY_CLASSIFICATION ( #47, ( #231 ) ) ;
#161 = AXIS2_PLACEMENT_3D ( 'NONE', #226, #48, #207 ) ;
#162 = PERSON_AND_ORGANIZATION_ROLE ( 'design_supplier' ) ;
#163 = EDGE_LOOP ( 'NONE', ( #126 ) ) ;
#164 = EDGE_LOOP ( 'NONE', ( #122 ) ) ;
#165 = APPROVAL_STATUS ( 'not_yet_approved' ) ;
#166 = DIRECTION ( 'NONE',  ( -3.491481338843133355E-15, 1.224646799147353207E-16, -1.000000000000000000 ) ) ;
#167 = APPROVAL ( #55, 'UNSPECIFIED' ) ;
#168 = CARTESIAN_POINT ( 'NONE',  ( 1.571166602479410136E-13, 5.510910596163094289E-14, 45.00000000000000711 ) ) ;
#169 = DIRECTION ( 'NONE',  ( -3.491481338843133355E-15, 1.224646799147353207E-16, -1.000000000000000000 ) ) ;
#170 = DIRECTION ( 'NONE',  ( -3.491481338843133355E-15, 1.224646799147353207E-16, -1.000000000000000000 ) ) ;
#171 = FACE_OUTER_BOUND ( 'NONE', #98, .T. ) ;
#172 = EDGE_CURVE ( 'NONE', #193, #193, #118, .T. ) ;
#173 = VERTEX_POINT ( 'NONE', #194 ) ;
#174 =( LENGTH_UNIT ( ) NAMED_UNIT ( * ) SI_UNIT ( .MILLI., .METRE. ) );
#175 = AXIS2_PLACEMENT_3D ( 'NONE', #241, #246, #65 ) ;
#176 = DIRECTION ( 'NONE',  ( -3.491481338843133355E-15, 1.224646799147353207E-16, -1.000000000000000000 ) ) ;
#177 = PRODUCT_DEFINITION_SHAPE ( 'NONE', 'NONE',  #216 ) ;
#178 =( NAMED_UNIT ( * ) PLANE_ANGLE_UNIT ( ) SI_UNIT ( $, .RADIAN. ) );
#179 = APPLICATION_CONTEXT ( 'configuration controlled 3d designs of mechanical parts and assemblies' ) ;
#180 = COORDINATED_UNIVERSAL_TIME_OFFSET ( 1, 0, .AHEAD. ) ;
#181 = EDGE_LOOP ( 'NONE', ( #197 ) ) ;
#182 = LOCAL_TIME ( 11, 34, 13.00000000000000000, #16 ) ;
#183 = APPROVAL_DATE_TIME ( #37, #68 ) ;
#184 = SECURITY_CLASSIFICATION_LEVEL ( 'unclassified' ) ;
#185 = DIRECTION ( 'NONE',  ( 4.275831445896958607E-31, 1.000000000000000000, 1.224646799147353207E-16 ) ) ;
#186 = ADVANCED_FACE ( 'NONE', ( #150, #171 ), #229, .T. ) ;
#187 = CARTESIAN_POINT ( 'NONE',  ( 2.758270257686075477E-13, -9.674709713264090904E-15, 79.00000000000000000 ) ) ;
#188 = CARTESIAN_POINT ( 'NONE',  ( 2.758270257686075477E-13, -9.674709713264090904E-15, 79.00000000000000000 ) ) ;
#189 = ADVANCED_FACE ( 'NONE', ( #159, #211 ), #105, .T. ) ;
#190 = CARTESIAN_POINT ( 'NONE',  ( 1.396592535537253342E-13, 4.898587196589416655E-14, 40.00000000000000000 ) ) ;
#191 = LOCAL_TIME ( 11, 34, 13.00000000000000000, #97 ) ;
#192 = DIRECTION ( 'NONE',  ( -4.314083075427444745E-30, 1.000000000000000000, -1.214306433183775221E-15 ) ) ;
#193 = VERTEX_POINT ( 'NONE', #53 ) ;
#194 = CARTESIAN_POINT ( 'NONE',  ( 5.204726011254094383E-15, 3.750000000000000000, 1.490692776544705112 ) ) ;
#195 = PERSON_AND_ORGANIZATION ( #153, #42 ) ;
#196 = EDGE_LOOP ( 'NONE', ( #87 ) ) ;
#197 = ORIENTED_EDGE ( 'NONE', *, *, #15, .T. ) ;
#198 = APPROVAL_DATE_TIME ( #214, #12 ) ;
#199 = ORIENTED_EDGE ( 'NONE', *, *, #215, .T. ) ;
#200 = MANIFOLD_SOLID_BREP ( 'Corps-Déplacer/Copier1[2]', #242 ) ;
#201 = LOCAL_TIME ( 11, 34, 13.00000000000000000, #180 ) ;
#202 = DIRECTION ( 'NONE',  ( 3.491481338843133355E-15, -1.224646799147353207E-16, 1.000000000000000000 ) ) ;
#203 = DIRECTION ( 'NONE',  ( 3.491481338843133355E-15, 1.224646799147354045E-15, 1.000000000000000000 ) ) ;
#204 = APPLICATION_CONTEXT ( 'configuration controlled 3d designs of mechanical parts and assemblies' ) ;
#205 = CARTESIAN_POINT ( 'NONE',  ( 1.396592535537253342E-13, 4.898587196589416655E-14, 40.00000000000000000 ) ) ;
#206 = AXIS2_PLACEMENT_3D ( 'NONE', #112, #169, #222 ) ;
#207 = DIRECTION ( 'NONE',  ( 4.365441207277736936E-30, -1.000000000000000000, 1.228762462150239016E-15 ) ) ;
#208 = VERTEX_POINT ( 'NONE', #135 ) ;
#209 = EDGE_CURVE ( 'NONE', #115, #115, #17, .T. ) ;
#210 = DIRECTION ( 'NONE',  ( 0.0000000000000000000, 0.0000000000000000000, 1.000000000000000000 ) ) ;
#211 = FACE_OUTER_BOUND ( 'NONE', #19, .T. ) ;
#212 = DIRECTION ( 'NONE',  ( -4.365441207277736936E-30, 1.000000000000000000, -1.228762462150239016E-15 ) ) ;
#213 = CONICAL_SURFACE ( 'NONE', #86, 3.200000000000001510, 0.7853981633974428389 ) ;
#214 = DATE_AND_TIME ( #258, #23 ) ;
#215 = EDGE_CURVE ( 'NONE', #233, #233, #80, .T. ) ;
#216 = PRODUCT_DEFINITION ( 'UNKNOWN', '', #231, #81 ) ;
#217 = AXIS2_PLACEMENT_3D ( 'NONE', #205, #170, #155 ) ;
#218 = AXIS2_PLACEMENT_3D ( 'NONE', #32, #116, #92 ) ;
#219 = PERSON_AND_ORGANIZATION ( #153, #42 ) ;
#220 = PERSON_AND_ORGANIZATION ( #153, #42 ) ;
#221 = ORIENTED_EDGE ( 'NONE', *, *, #172, .F. ) ;
#222 = DIRECTION ( 'NONE',  ( 0.0000000000000000000, 1.000000000000000000, 0.0000000000000000000 ) ) ;
#223 = EDGE_LOOP ( 'NONE', ( #146 ) ) ;
#224 = FACE_OUTER_BOUND ( 'NONE', #147, .T. ) ;
#225 = CC_DESIGN_DATE_AND_TIME_ASSIGNMENT ( #238, #121, ( #216 ) ) ;
#226 = CARTESIAN_POINT ( 'NONE',  ( 3.812385842504408124E-15, 1.337204947137045307E-15, 1.091910702798601696 ) ) ;
#227 = AXIS2_PLACEMENT_3D ( 'NONE', #129, #202, #152 ) ;
#228 = CARTESIAN_POINT ( 'NONE',  ( 1.586285160160801066E-13, 5.563939358099353126E-14, 45.43301270189233065 ) ) ;
#229 = CYLINDRICAL_SURFACE ( 'NONE', #218, 3.749999999999968470 ) ;
#230 = ADVANCED_FACE ( 'NONE', ( #158, #35 ), #7, .T. ) ;
#231 = PRODUCT_DEFINITION_FORMATION_WITH_SPECIFIED_SOURCE ( 'ANY', '', #252, .NOT_KNOWN. ) ;
#232 = CARTESIAN_POINT ( 'NONE',  ( 1.586285160160801318E-13, -3.999999999999944489, 45.43301270189233776 ) ) ;
#233 = VERTEX_POINT ( 'NONE', #10 ) ;
#234 = ORIENTED_EDGE ( 'NONE', *, *, #44, .F. ) ;
#235 = SHAPE_DEFINITION_REPRESENTATION ( #177, #76 ) ;
#236 = PRODUCT_RELATED_PRODUCT_CATEGORY ( 'detail', '', ( #252 ) ) ;
#237 = COORDINATED_UNIVERSAL_TIME_OFFSET ( 1, 0, .AHEAD. ) ;
#238 = DATE_AND_TIME ( #125, #201 ) ;
#239 = EDGE_LOOP ( 'NONE', ( #40 ) ) ;
#240 = DATE_AND_TIME ( #99, #182 ) ;
#241 = CARTESIAN_POINT ( 'NONE',  ( 2.758270257686075477E-13, 2.399615652258959035E-32, 79.00000000000000000 ) ) ;
#242 = CLOSED_SHELL ( 'NONE', ( #96, #131, #21, #186 ) ) ;
#243 = DIRECTION ( 'NONE',  ( -3.491481338843133355E-15, -1.224646799147354045E-15, -1.000000000000000000 ) ) ;
#244 = PLANE ( 'NONE',  #227 ) ;
#245 = CC_DESIGN_PERSON_AND_ORGANIZATION_ASSIGNMENT ( #219, #75, ( #231 ) ) ;
#246 = DIRECTION ( 'NONE',  ( -3.491481338843133355E-15, 1.224646799147353207E-16, -1.000000000000000000 ) ) ;
#247 = DIRECTION ( 'NONE',  ( 4.314083075427410413E-30, -1.000000000000000000, 1.214306433183765558E-15 ) ) ;
#248 = CONICAL_SURFACE ( 'NONE', #140, 3.749999999999998224, 1.082104136236485381 ) ;
#249 = AXIS2_PLACEMENT_3D ( 'NONE', #253, #210, #114 ) ;
#250 = CARTESIAN_POINT ( 'NONE',  ( 1.616522275523572070E-13, 5.669996881971830412E-14, 46.29903810567666511 ) ) ;
#251 = CARTESIAN_POINT ( 'NONE',  ( 1.396592535537253342E-13, -3.749999999999919620, 40.00000000000000000 ) ) ;
#252 = PRODUCT ( '62880', '62880', '', ( #70 ) ) ;
#253 = CARTESIAN_POINT ( 'NONE',  ( 0.0000000000000000000, 0.0000000000000000000, 0.0000000000000000000 ) ) ;
#254 = APPROVAL_PERSON_ORGANIZATION ( #220, #12, #18 ) ;
#255 = CC_DESIGN_DATE_AND_TIME_ASSIGNMENT ( #240, #82, ( #47 ) ) ;
#256 = APPROVAL_DATE_TIME ( #39, #167 ) ;
#257 = EDGE_LOOP ( 'NONE', ( #199 ) ) ;
#258 = CALENDAR_DATE ( 2021, 15, 10 ) ;
#259 = CIRCLE ( 'NONE', #69, 3.749999999999998224 ) ;
#260 = AXIS2_PLACEMENT_3D ( 'NONE', #190, #176, #90 ) ;
#261 = PERSON_AND_ORGANIZATION_ROLE ( 'classification_officer' ) ;
#262 = FACE_OUTER_BOUND ( 'NONE', #181, .T. ) ;
#263 = DIRECTION ( 'NONE',  ( 0.0000000000000000000, 1.000000000000000000, 0.0000000000000000000 ) ) ;
ENDSEC;
END-ISO-10303-21;
