ISO-10303-21;
HEADER;
FILE_DESCRIPTION (( 'STEP AP203' ),
    '1' );
FILE_NAME ('62878.step',
    '2021-10-15T09:34:13',
    ( '' ),
    ( '' ),
    'SwSTEP 2.0',
    'SolidWorks 2019',
    '' );
FILE_SCHEMA (( 'CONFIG_CONTROL_DESIGN' ));
ENDSEC;

DATA;
#1 = CC_DESIGN_SECURITY_CLASSIFICATION ( #100, ( #166 ) ) ;
#2 = FACE_OUTER_BOUND ( 'NONE', #103, .T. ) ;
#3 = CARTESIAN_POINT ( 'NONE',  ( 1.396592535537253342E-13, 2.999519565323705910E-32, 40.00000000000000000 ) ) ;
#4 = DIRECTION ( 'NONE',  ( 4.275831445896958607E-31, 1.000000000000000000, 1.224646799147353207E-16 ) ) ;
#5 = CARTESIAN_POINT ( 'NONE',  ( 1.571166602479409884E-13, 3.499999999999994227, 45.00000000000000000 ) ) ;
#6 = ADVANCED_FACE ( 'NONE', ( #66, #145 ), #241, .T. ) ;
#7 = FACE_OUTER_BOUND ( 'NONE', #95, .T. ) ;
#8 = CARTESIAN_POINT ( 'NONE',  ( 2.730338406975330410E-13, 3.999999999999992450, 78.19999999999998863 ) ) ;
#9 = DIRECTION ( 'NONE',  ( 0.0000000000000000000, 0.0000000000000000000, 1.000000000000000000 ) ) ;
#10 = AXIS2_PLACEMENT_3D ( 'NONE', #53, #245, #246 ) ;
#11 = CC_DESIGN_PERSON_AND_ORGANIZATION_ASSIGNMENT ( #172, #212, ( #233 ) ) ;
#12 = PERSON_AND_ORGANIZATION ( #203, #156 ) ;
#13 = PERSON_AND_ORGANIZATION_ROLE ( 'classification_officer' ) ;
#14 = EDGE_LOOP ( 'NONE', ( #96 ) ) ;
#15 = LOCAL_TIME ( 11, 34, 13.00000000000000000, #178 ) ;
#16 = DATE_AND_TIME ( #56, #58 ) ;
#17 = EDGE_LOOP ( 'NONE', ( #60 ) ) ;
#18 = PERSON_AND_ORGANIZATION ( #203, #156 ) ;
#19 = AXIS2_PLACEMENT_3D ( 'NONE', #125, #105, #127 ) ;
#20 = LOCAL_TIME ( 11, 34, 13.00000000000000000, #139 ) ;
#21 = CARTESIAN_POINT ( 'NONE',  ( 2.730338406975330410E-13, -9.576737969332300892E-15, 78.19999999999998863 ) ) ;
#22 = DIRECTION ( 'NONE',  ( 5.478200730701546697E-30, -1.000000000000000000, 1.541976423090516538E-15 ) ) ;
#23 = PLANE ( 'NONE',  #143 ) ;
#24 = EDGE_CURVE ( 'NONE', #67, #67, #239, .T. ) ;
#25 = AXIS2_PLACEMENT_3D ( 'NONE', #88, #232, #29 ) ;
#26 = FACE_OUTER_BOUND ( 'NONE', #221, .T. ) ;
#27 = CARTESIAN_POINT ( 'NONE',  ( 1.396592535537253342E-13, 4.898587196589416655E-14, 40.00000000000000000 ) ) ;
#28 = APPLICATION_PROTOCOL_DEFINITION ( 'international standard', 'config_control_design', 1994, #35 ) ;
#29 = DIRECTION ( 'NONE',  ( -7.043400939473441804E-30, 1.000000000000000000, -1.982541115402099623E-15 ) ) ;
#30 = CARTESIAN_POINT ( 'NONE',  ( 2.758270257686075477E-13, 3.199999999999991740, 79.00000000000000000 ) ) ;
#31 = CARTESIAN_POINT ( 'NONE',  ( 1.601403717842188713E-13, -3.999999999999943601, 45.86602540378456183 ) ) ;
#32 = CC_DESIGN_PERSON_AND_ORGANIZATION_ASSIGNMENT ( #217, #181, ( #80 ) ) ;
#33 =( NAMED_UNIT ( * ) PLANE_ANGLE_UNIT ( ) SI_UNIT ( $, .RADIAN. ) );
#34 =( GEOMETRIC_REPRESENTATION_CONTEXT ( 3 ) GLOBAL_UNCERTAINTY_ASSIGNED_CONTEXT ( ( #124 ) ) GLOBAL_UNIT_ASSIGNED_CONTEXT ( ( #113, #33, #115 ) ) REPRESENTATION_CONTEXT ( 'NONE', 'WORKASPACE' ) );
#35 = APPLICATION_CONTEXT ( 'configuration controlled 3d designs of mechanical parts and assemblies' ) ;
#36 = APPROVAL_DATE_TIME ( #236, #194 ) ;
#37 = DATE_AND_TIME ( #216, #15 ) ;
#38 = ORIENTED_EDGE ( 'NONE', *, *, #85, .F. ) ;
#39 = LOCAL_TIME ( 11, 34, 13.00000000000000000, #78 ) ;
#40 = SECURITY_CLASSIFICATION_LEVEL ( 'unclassified' ) ;
#41 = ADVANCED_FACE ( 'NONE', ( #144, #207 ), #131, .T. ) ;
#42 = EDGE_LOOP ( 'NONE', ( #123 ) ) ;
#43 = DIRECTION ( 'NONE',  ( 3.491481338843133355E-15, 1.224646799147354045E-15, 1.000000000000000000 ) ) ;
#44 = DIRECTION ( 'NONE',  ( 6.162975822039154730E-30, -1.000000000000000000, 1.734723475976807094E-15 ) ) ;
#45 = ADVANCED_FACE ( 'NONE', ( #164, #225 ), #114, .T. ) ;
#46 = CARTESIAN_POINT ( 'NONE',  ( 4.857744277170501817E-15, 1.703867328153722824E-15, 1.391313258108395345 ) ) ;
#47 = FACE_OUTER_BOUND ( 'NONE', #17, .T. ) ;
#48 = FACE_BOUND ( 'NONE', #81, .T. ) ;
#49 = APPROVAL_STATUS ( 'not_yet_approved' ) ;
#50 = CONICAL_SURFACE ( 'NONE', #231, 2.799999999999998046, 1.221730476396032161 ) ;
#51 = EDGE_CURVE ( 'NONE', #176, #176, #227, .T. ) ;
#52 = DIRECTION ( 'NONE',  ( -3.491481338843133355E-15, -1.224646799147354045E-15, -1.000000000000000000 ) ) ;
#53 = CARTESIAN_POINT ( 'NONE',  ( 1.396592535537253342E-13, 4.898587196589416655E-14, 40.00000000000000000 ) ) ;
#54 = CALENDAR_DATE ( 2021, 15, 10 ) ;
#55 = PERSON_AND_ORGANIZATION ( #203, #156 ) ;
#56 = CALENDAR_DATE ( 2021, 15, 10 ) ;
#57 = CLOSED_SHELL ( 'NONE', ( #256, #76, #45, #41 ) ) ;
#58 = LOCAL_TIME ( 11, 34, 13.00000000000000000, #201 ) ;
#59 = ORIENTED_EDGE ( 'NONE', *, *, #177, .T. ) ;
#60 = ORIENTED_EDGE ( 'NONE', *, *, #133, .F. ) ;
#61 = AXIS2_PLACEMENT_3D ( 'NONE', #21, #238, #146 ) ;
#62 = AXIS2_PLACEMENT_3D ( 'NONE', #230, #52, #193 ) ;
#63 = DIRECTION ( 'NONE',  ( -3.491481338843133355E-15, -1.224646799147354045E-15, -1.000000000000000000 ) ) ;
#64 = EDGE_CURVE ( 'NONE', #90, #90, #136, .T. ) ;
#65 = DIRECTION ( 'NONE',  ( 3.491481338843133355E-15, -1.224646799147353207E-16, 1.000000000000000000 ) ) ;
#66 = FACE_OUTER_BOUND ( 'NONE', #204, .T. ) ;
#67 = VERTEX_POINT ( 'NONE', #110 ) ;
#68 = PRODUCT_RELATED_PRODUCT_CATEGORY ( 'detail', '', ( #233 ) ) ;
#69 = DIRECTION ( 'NONE',  ( 3.491481338843133355E-15, -1.224646799147353207E-16, 1.000000000000000000 ) ) ;
#70 = APPLICATION_PROTOCOL_DEFINITION ( 'international standard', 'config_control_design', 1994, #153 ) ;
#71 = EDGE_LOOP ( 'NONE', ( #102 ) ) ;
#72 = SHAPE_DEFINITION_REPRESENTATION ( #249, #179 ) ;
#73 = ORIENTED_EDGE ( 'NONE', *, *, #51, .T. ) ;
#74 = CALENDAR_DATE ( 2021, 15, 10 ) ;
#75 = ORIENTED_EDGE ( 'NONE', *, *, #184, .F. ) ;
#76 = ADVANCED_FACE ( 'NONE', ( #208 ), #50, .T. ) ;
#77 = AXIS2_PLACEMENT_3D ( 'NONE', #187, #163, #22 ) ;
#78 = COORDINATED_UNIVERSAL_TIME_OFFSET ( 1, 0, .AHEAD. ) ;
#79 = DIRECTION ( 'NONE',  ( -3.491481338843133355E-15, 1.224646799147353207E-16, -1.000000000000000000 ) ) ;
#80 = PRODUCT_DEFINITION ( 'UNKNOWN', '', #166, #160 ) ;
#81 = EDGE_LOOP ( 'NONE', ( #75 ) ) ;
#82 = DIRECTION ( 'NONE',  ( -3.491481338843133355E-15, 1.224646799147353207E-16, -1.000000000000000000 ) ) ;
#83 = CARTESIAN_POINT ( 'NONE',  ( 2.758270257686075477E-13, 2.399615652258959035E-32, 79.00000000000000000 ) ) ;
#84 = CARTESIAN_POINT ( 'NONE',  ( 3.558226786337447425E-15, 1.248057950661242326E-15, 1.019116655945361494 ) ) ;
#85 = EDGE_CURVE ( 'NONE', #149, #149, #165, .T. ) ;
#86 = APPROVAL_PERSON_ORGANIZATION ( #108, #228, #122 ) ;
#87 = VERTEX_POINT ( 'NONE', #154 ) ;
#88 = CARTESIAN_POINT ( 'NONE',  ( 1.571166602479410136E-13, 5.510910596163094289E-14, 45.00000000000000711 ) ) ;
#89 = AXIS2_PLACEMENT_3D ( 'NONE', #169, #82, #142 ) ;
#90 = VERTEX_POINT ( 'NONE', #197 ) ;
#91 = APPROVAL_PERSON_ORGANIZATION ( #255, #117, #94 ) ;
#92 = PLANE ( 'NONE',  #247 ) ;
#93 = APPROVAL_STATUS ( 'not_yet_approved' ) ;
#94 = APPROVAL_ROLE ( '' ) ;
#95 = EDGE_LOOP ( 'NONE', ( #254 ) ) ;
#96 = ORIENTED_EDGE ( 'NONE', *, *, #177, .F. ) ;
#97 = PERSON_AND_ORGANIZATION ( #203, #156 ) ;
#98 = ADVANCED_FACE ( 'NONE', ( #106, #229 ), #191, .T. ) ;
#99 = DATE_AND_TIME ( #54, #171 ) ;
#100 = SECURITY_CLASSIFICATION ( '', '', #40 ) ;
#101 = CARTESIAN_POINT ( 'NONE',  ( 3.558226786337447425E-15, 1.248057950661242326E-15, 1.019116655945361494 ) ) ;
#102 = ORIENTED_EDGE ( 'NONE', *, *, #24, .T. ) ;
#103 = EDGE_LOOP ( 'NONE', ( #59 ) ) ;
#104 = AXIS2_PLACEMENT_3D ( 'NONE', #3, #65, #130 ) ;
#105 = DIRECTION ( 'NONE',  ( -3.491481338843133355E-15, -1.224646799147354045E-15, -1.000000000000000000 ) ) ;
#106 = FACE_OUTER_BOUND ( 'NONE', #185, .T. ) ;
#107 = CC_DESIGN_DATE_AND_TIME_ASSIGNMENT ( #99, #116, ( #100 ) ) ;
#108 = PERSON_AND_ORGANIZATION ( #203, #156 ) ;
#109 = MANIFOLD_SOLID_BREP ( 'Corps-Déplacer/Copier1[2]', #57 ) ;
#110 = CARTESIAN_POINT ( 'NONE',  ( 1.396592535537253342E-13, -3.499999999999919620, 40.00000000000000000 ) ) ;
#111 = ADVANCED_FACE ( 'NONE', ( #48, #26 ), #128, .T. ) ;
#112 = DIRECTION ( 'NONE',  ( -4.275831445896958607E-31, -1.000000000000000000, -1.224646799147353207E-16 ) ) ;
#113 =( LENGTH_UNIT ( ) NAMED_UNIT ( * ) SI_UNIT ( .MILLI., .METRE. ) );
#114 = CONICAL_SURFACE ( 'NONE', #244, 3.499999999999997780, 1.082104136236485603 ) ;
#115 =( NAMED_UNIT ( * ) SI_UNIT ( $, .STERADIAN. ) SOLID_ANGLE_UNIT ( ) );
#116 = DATE_TIME_ROLE ( 'classification_date' ) ;
#117 = APPROVAL ( #93, 'UNSPECIFIED' ) ;
#118 = APPROVAL_STATUS ( 'not_yet_approved' ) ;
#119 = CALENDAR_DATE ( 2021, 15, 10 ) ;
#120 = EDGE_LOOP ( 'NONE', ( #252 ) ) ;
#121 = DATE_AND_TIME ( #74, #39 ) ;
#122 = APPROVAL_ROLE ( '' ) ;
#123 = ORIENTED_EDGE ( 'NONE', *, *, #157, .T. ) ;
#124 = UNCERTAINTY_MEASURE_WITH_UNIT (LENGTH_MEASURE( 1.000000000000000082E-05 ), #113, 'distance_accuracy_value', 'NONE');
#125 = CARTESIAN_POINT ( 'NONE',  ( 4.857744277170501817E-15, 1.703867328153722824E-15, 1.391313258108395345 ) ) ;
#126 = DIRECTION ( 'NONE',  ( 0.0000000000000000000, 1.000000000000000000, 0.0000000000000000000 ) ) ;
#127 = DIRECTION ( 'NONE',  ( -4.182019307812286269E-30, 1.000000000000000000, -1.239088197126291655E-15 ) ) ;
#128 = CONICAL_SURFACE ( 'NONE', #77, 4.499999999999937828, 0.5235987755982979275 ) ;
#129 = ADVANCED_FACE ( 'NONE', ( #2 ), #167, .F. ) ;
#130 = DIRECTION ( 'NONE',  ( -4.275831445896958607E-31, -1.000000000000000000, -1.224646799147353207E-16 ) ) ;
#131 = CYLINDRICAL_SURFACE ( 'NONE', #209, 3.499999999999968470 ) ;
#132 = CYLINDRICAL_SURFACE ( 'NONE', #62, 3.499999999999968470 ) ;
#133 = EDGE_CURVE ( 'NONE', #192, #192, #253, .T. ) ;
#134 = CARTESIAN_POINT ( 'NONE',  ( 1.396592535537253342E-13, -3.499999999999919620, 40.00000000000000000 ) ) ;
#135 = ADVANCED_FACE ( 'NONE', ( #47 ), #23, .F. ) ;
#136 = CIRCLE ( 'NONE', #19, 3.499999999999997780 ) ;
#137 = APPROVAL_DATE_TIME ( #121, #117 ) ;
#138 = ORIENTED_EDGE ( 'NONE', *, *, #51, .F. ) ;
#139 = COORDINATED_UNIVERSAL_TIME_OFFSET ( 1, 0, .AHEAD. ) ;
#140 = ORIENTED_EDGE ( 'NONE', *, *, #157, .F. ) ;
#141 = DATE_TIME_ROLE ( 'creation_date' ) ;
#142 = DIRECTION ( 'NONE',  ( 4.275831445896958607E-31, 1.000000000000000000, 1.224646799147353207E-16 ) ) ;
#143 = AXIS2_PLACEMENT_3D ( 'NONE', #83, #242, #4 ) ;
#144 = FACE_OUTER_BOUND ( 'NONE', #71, .T. ) ;
#145 = FACE_OUTER_BOUND ( 'NONE', #257, .T. ) ;
#146 = DIRECTION ( 'NONE',  ( 0.0000000000000000000, 1.000000000000000000, 0.0000000000000000000 ) ) ;
#147 = CIRCLE ( 'NONE', #10, 3.499999999999968470 ) ;
#148 = DIRECTION ( 'NONE',  ( 3.491481338843133355E-15, 1.224646799147354045E-15, 1.000000000000000000 ) ) ;
#149 = VERTEX_POINT ( 'NONE', #31 ) ;
#150 = DIRECTION ( 'NONE',  ( -3.491481338843133355E-15, -1.224646799147354045E-15, -1.000000000000000000 ) ) ;
#151 = AXIS2_PLACEMENT_3D ( 'NONE', #188, #186, #126 ) ;
#152 = VERTEX_POINT ( 'NONE', #5 ) ;
#153 = APPLICATION_CONTEXT ( 'configuration controlled 3d designs of mechanical parts and assemblies' ) ;
#154 = CARTESIAN_POINT ( 'NONE',  ( 3.558226786337434803E-15, 2.799999999999999378, 1.019116655945357941 ) ) ;
#155 = MECHANICAL_CONTEXT ( 'NONE', #153, 'mechanical' ) ;
#156 = ORGANIZATION ( 'UNSPECIFIED', 'UNSPECIFIED', '' ) ;
#157 = EDGE_CURVE ( 'NONE', #87, #87, #180, .T. ) ;
#158 = ORIENTED_EDGE ( 'NONE', *, *, #85, .T. ) ;
#159 = PERSON_AND_ORGANIZATION_ROLE ( 'design_supplier' ) ;
#160 = DESIGN_CONTEXT ( 'detailed design', #35, 'design' ) ;
#161 = AXIS2_PLACEMENT_3D ( 'NONE', #215, #9, #250 ) ;
#162 = EDGE_LOOP ( 'NONE', ( #200 ) ) ;
#163 = DIRECTION ( 'NONE',  ( 3.491481338843133355E-15, 1.224646799147354045E-15, 1.000000000000000000 ) ) ;
#164 = FACE_BOUND ( 'NONE', #235, .T. ) ;
#165 = CIRCLE ( 'NONE', #222, 4.000000000000000000 ) ;
#166 = PRODUCT_DEFINITION_FORMATION_WITH_SPECIFIED_SOURCE ( 'ANY', '', #233, .NOT_KNOWN. ) ;
#167 = PLANE ( 'NONE',  #104 ) ;
#168 = CC_DESIGN_PERSON_AND_ORGANIZATION_ASSIGNMENT ( #12, #159, ( #166 ) ) ;
#169 = CARTESIAN_POINT ( 'NONE',  ( 0.0000000000000000000, 0.0000000000000000000, 0.0000000000000000000 ) ) ;
#170 = DIRECTION ( 'NONE',  ( -4.182019307812321302E-30, 1.000000000000000000, -1.239088197126301910E-15 ) ) ;
#171 = LOCAL_TIME ( 11, 34, 13.00000000000000000, #182 ) ;
#172 = PERSON_AND_ORGANIZATION ( #203, #156 ) ;
#173 = VERTEX_POINT ( 'NONE', #134 ) ;
#174 = CLOSED_SHELL ( 'NONE', ( #6, #98, #135, #214, #111, #129 ) ) ;
#175 = AXIS2_PLACEMENT_3D ( 'NONE', #84, #150, #213 ) ;
#176 = VERTEX_POINT ( 'NONE', #8 ) ;
#177 = EDGE_CURVE ( 'NONE', #173, #173, #147, .T. ) ;
#178 = COORDINATED_UNIVERSAL_TIME_OFFSET ( 1, 0, .AHEAD. ) ;
#179 = ADVANCED_BREP_SHAPE_REPRESENTATION ( '62878', ( #206, #109, #161 ), #34 ) ;
#180 = CIRCLE ( 'NONE', #175, 2.799999999999998046 ) ;
#181 = PERSON_AND_ORGANIZATION_ROLE ( 'creator' ) ;
#182 = COORDINATED_UNIVERSAL_TIME_OFFSET ( 1, 0, .AHEAD. ) ;
#183 = CC_DESIGN_APPROVAL ( #194, ( #166 ) ) ;
#184 = EDGE_CURVE ( 'NONE', #152, #152, #261, .T. ) ;
#185 = EDGE_LOOP ( 'NONE', ( #138 ) ) ;
#186 = DIRECTION ( 'NONE',  ( -3.491481338843133355E-15, 1.224646799147353207E-16, -1.000000000000000000 ) ) ;
#187 = CARTESIAN_POINT ( 'NONE',  ( 1.631640833204959213E-13, 5.723025643908076628E-14, 46.73205080756888208 ) ) ;
#188 = CARTESIAN_POINT ( 'NONE',  ( 2.758270257686075477E-13, -9.674709713264090904E-15, 79.00000000000000000 ) ) ;
#189 = FACE_OUTER_BOUND ( 'NONE', #237, .T. ) ;
#190 = CC_DESIGN_DATE_AND_TIME_ASSIGNMENT ( #37, #141, ( #80 ) ) ;
#191 = CONICAL_SURFACE ( 'NONE', #196, 3.200000000000001510, 0.7853981633974428389 ) ;
#192 = VERTEX_POINT ( 'NONE', #30 ) ;
#193 = DIRECTION ( 'NONE',  ( -4.182019307812321302E-30, 1.000000000000000000, -1.239088197126301910E-15 ) ) ;
#194 = APPROVAL ( #118, 'UNSPECIFIED' ) ;
#195 = CARTESIAN_POINT ( 'NONE',  ( 1.396592535537253342E-13, 2.999519565323705910E-32, 40.00000000000000000 ) ) ;
#196 = AXIS2_PLACEMENT_3D ( 'NONE', #226, #79, #205 ) ;
#197 = CARTESIAN_POINT ( 'NONE',  ( 4.857744277170486829E-15, 3.499999999999999556, 1.391313258108390905 ) ) ;
#198 = PERSON_AND_ORGANIZATION_ROLE ( 'creator' ) ;
#199 = APPROVAL_PERSON_ORGANIZATION ( #97, #194, #258 ) ;
#200 = ORIENTED_EDGE ( 'NONE', *, *, #133, .T. ) ;
#201 = COORDINATED_UNIVERSAL_TIME_OFFSET ( 1, 0, .AHEAD. ) ;
#202 = CC_DESIGN_PERSON_AND_ORGANIZATION_ASSIGNMENT ( #18, #198, ( #166 ) ) ;
#203 = PERSON ( 'UNSPECIFIED', 'UNSPECIFIED', 'UNSPECIFIED', ('UNSPECIFIED'), ('UNSPECIFIED'), ('UNSPECIFIED') ) ;
#204 = EDGE_LOOP ( 'NONE', ( #158 ) ) ;
#205 = DIRECTION ( 'NONE',  ( 0.0000000000000000000, 1.000000000000000000, 0.0000000000000000000 ) ) ;
#206 = MANIFOLD_SOLID_BREP ( 'Corps-Déplacer/Copier1[1]', #174 ) ;
#207 = FACE_OUTER_BOUND ( 'NONE', #220, .T. ) ;
#208 = FACE_OUTER_BOUND ( 'NONE', #42, .T. ) ;
#209 = AXIS2_PLACEMENT_3D ( 'NONE', #223, #63, #170 ) ;
#210 = CC_DESIGN_APPROVAL ( #228, ( #80 ) ) ;
#211 = DIRECTION ( 'NONE',  ( -3.491481338843133355E-15, 1.224646799147353207E-16, -1.000000000000000000 ) ) ;
#212 = PERSON_AND_ORGANIZATION_ROLE ( 'design_owner' ) ;
#213 = DIRECTION ( 'NONE',  ( -4.402125587170827910E-30, 1.000000000000000000, -1.239088197126291655E-15 ) ) ;
#214 = ADVANCED_FACE ( 'NONE', ( #7, #248 ), #132, .T. ) ;
#215 = CARTESIAN_POINT ( 'NONE',  ( 0.0000000000000000000, 0.0000000000000000000, 0.0000000000000000000 ) ) ;
#216 = CALENDAR_DATE ( 2021, 15, 10 ) ;
#217 = PERSON_AND_ORGANIZATION ( #203, #156 ) ;
#218 = ORIENTED_EDGE ( 'NONE', *, *, #24, .F. ) ;
#219 = APPROVAL_DATE_TIME ( #16, #228 ) ;
#220 = EDGE_LOOP ( 'NONE', ( #259 ) ) ;
#221 = EDGE_LOOP ( 'NONE', ( #38 ) ) ;
#222 = AXIS2_PLACEMENT_3D ( 'NONE', #240, #224, #44 ) ;
#223 = CARTESIAN_POINT ( 'NONE',  ( -3.491481338843130200E-15, -1.224646799147353059E-15, -0.9999999999999991118 ) ) ;
#224 = DIRECTION ( 'NONE',  ( 3.491481338843133355E-15, 1.224646799147354045E-15, 1.000000000000000000 ) ) ;
#225 = FACE_OUTER_BOUND ( 'NONE', #120, .T. ) ;
#226 = CARTESIAN_POINT ( 'NONE',  ( 2.758270257686075477E-13, -9.674709713264090904E-15, 79.00000000000000000 ) ) ;
#227 = CIRCLE ( 'NONE', #61, 4.000000000000001776 ) ;
#228 = APPROVAL ( #49, 'UNSPECIFIED' ) ;
#229 = FACE_BOUND ( 'NONE', #162, .T. ) ;
#230 = CARTESIAN_POINT ( 'NONE',  ( -3.491481338843130200E-15, -1.224646799147353059E-15, -0.9999999999999991118 ) ) ;
#231 = AXIS2_PLACEMENT_3D ( 'NONE', #101, #148, #262 ) ;
#232 = DIRECTION ( 'NONE',  ( -3.491481338843133355E-15, -1.224646799147354045E-15, -1.000000000000000000 ) ) ;
#233 = PRODUCT ( '62878', '62878', '', ( #155 ) ) ;
#234 = CC_DESIGN_APPROVAL ( #117, ( #100 ) ) ;
#235 = EDGE_LOOP ( 'NONE', ( #140 ) ) ;
#236 = DATE_AND_TIME ( #119, #20 ) ;
#237 = EDGE_LOOP ( 'NONE', ( #218 ) ) ;
#238 = DIRECTION ( 'NONE',  ( -3.491481338843133355E-15, 1.224646799147353207E-16, -1.000000000000000000 ) ) ;
#239 = CIRCLE ( 'NONE', #260, 3.499999999999968470 ) ;
#240 = CARTESIAN_POINT ( 'NONE',  ( 1.601403717842188461E-13, 5.616968120035598711E-14, 45.86602540378455473 ) ) ;
#241 = CYLINDRICAL_SURFACE ( 'NONE', #89, 4.000000000000000000 ) ;
#242 = DIRECTION ( 'NONE',  ( -3.491481338843133355E-15, 1.224646799147353207E-16, -1.000000000000000000 ) ) ;
#243 = DIRECTION ( 'NONE',  ( 4.182019307812286269E-30, -1.000000000000000000, 1.239088197126291655E-15 ) ) ;
#244 = AXIS2_PLACEMENT_3D ( 'NONE', #46, #43, #243 ) ;
#245 = DIRECTION ( 'NONE',  ( -3.491481338843133355E-15, 1.224646799147353207E-16, -1.000000000000000000 ) ) ;
#246 = DIRECTION ( 'NONE',  ( 0.0000000000000000000, -1.000000000000000000, 0.0000000000000000000 ) ) ;
#247 = AXIS2_PLACEMENT_3D ( 'NONE', #195, #69, #112 ) ;
#248 = FACE_OUTER_BOUND ( 'NONE', #14, .T. ) ;
#249 = PRODUCT_DEFINITION_SHAPE ( 'NONE', 'NONE',  #80 ) ;
#250 = DIRECTION ( 'NONE',  ( 1.000000000000000000, 0.0000000000000000000, 0.0000000000000000000 ) ) ;
#251 = CC_DESIGN_PERSON_AND_ORGANIZATION_ASSIGNMENT ( #55, #13, ( #100 ) ) ;
#252 = ORIENTED_EDGE ( 'NONE', *, *, #64, .T. ) ;
#253 = CIRCLE ( 'NONE', #151, 3.200000000000001510 ) ;
#254 = ORIENTED_EDGE ( 'NONE', *, *, #184, .T. ) ;
#255 = PERSON_AND_ORGANIZATION ( #203, #156 ) ;
#256 = ADVANCED_FACE ( 'NONE', ( #189 ), #92, .T. ) ;
#257 = EDGE_LOOP ( 'NONE', ( #73 ) ) ;
#258 = APPROVAL_ROLE ( '' ) ;
#259 = ORIENTED_EDGE ( 'NONE', *, *, #64, .F. ) ;
#260 = AXIS2_PLACEMENT_3D ( 'NONE', #27, #211, #263 ) ;
#261 = CIRCLE ( 'NONE', #25, 3.499999999999939160 ) ;
#262 = DIRECTION ( 'NONE',  ( 4.402125587170827910E-30, -1.000000000000000000, 1.239088197126291655E-15 ) ) ;
#263 = DIRECTION ( 'NONE',  ( 0.0000000000000000000, -1.000000000000000000, 0.0000000000000000000 ) ) ;
ENDSEC;
END-ISO-10303-21;
