ISO-10303-21;
HEADER;
FILE_DESCRIPTION (( 'STEP AP203' ),
    '1' );
FILE_NAME ('62877.step',
    '2021-10-15T09:34:12',
    ( '' ),
    ( '' ),
    'SwSTEP 2.0',
    'SolidWorks 2019',
    '' );
FILE_SCHEMA (( 'CONFIG_CONTROL_DESIGN' ));
ENDSEC;

DATA;
#1 = SHAPE_DEFINITION_REPRESENTATION ( #174, #4 ) ;
#2 = CONICAL_SURFACE ( 'NONE', #258, 3.200000000000001510, 0.7853981633974428389 ) ;
#3 = DATE_AND_TIME ( #19, #62 ) ;
#4 = ADVANCED_BREP_SHAPE_REPRESENTATION ( '62877', ( #197, #198, #89 ), #149 ) ;
#5 = COORDINATED_UNIVERSAL_TIME_OFFSET ( 1, 0, .AHEAD. ) ;
#6 = DIRECTION ( 'NONE',  ( -3.491481338843133355E-15, 1.224646799147353207E-16, -1.000000000000000000 ) ) ;
#7 = CARTESIAN_POINT ( 'NONE',  ( -3.491481338843130200E-15, -1.224646799147353059E-15, -0.9999999999999991118 ) ) ;
#8 = PERSON_AND_ORGANIZATION_ROLE ( 'creator' ) ;
#9 = FACE_BOUND ( 'NONE', #15, .T. ) ;
#10 = DIRECTION ( 'NONE',  ( -3.491481338843133355E-15, -1.224646799147354045E-15, -1.000000000000000000 ) ) ;
#11 = DIRECTION ( 'NONE',  ( -3.491481338843133355E-15, 1.224646799147353207E-16, -1.000000000000000000 ) ) ;
#12 = AXIS2_PLACEMENT_3D ( 'NONE', #234, #210, #195 ) ;
#13 = ORIENTED_EDGE ( 'NONE', *, *, #98, .T. ) ;
#14 = EDGE_CURVE ( 'NONE', #239, #239, #224, .T. ) ;
#15 = EDGE_LOOP ( 'NONE', ( #260 ) ) ;
#16 = APPLICATION_CONTEXT ( 'configuration controlled 3d designs of mechanical parts and assemblies' ) ;
#17 = ADVANCED_FACE ( 'NONE', ( #171, #233 ), #90, .T. ) ;
#18 = DIRECTION ( 'NONE',  ( -3.491481338843133355E-15, -1.224646799147354045E-15, -1.000000000000000000 ) ) ;
#19 = CALENDAR_DATE ( 2021, 15, 10 ) ;
#20 = SECURITY_CLASSIFICATION_LEVEL ( 'unclassified' ) ;
#21 = AXIS2_PLACEMENT_3D ( 'NONE', #7, #47, #83 ) ;
#22 = DIRECTION ( 'NONE',  ( 5.478200730701547397E-30, -1.000000000000000000, 1.541976423090516735E-15 ) ) ;
#23 =( NAMED_UNIT ( * ) PLANE_ANGLE_UNIT ( ) SI_UNIT ( $, .RADIAN. ) );
#24 = DIRECTION ( 'NONE',  ( 3.491481338843133355E-15, -1.224646799147353207E-16, 1.000000000000000000 ) ) ;
#25 = PERSON_AND_ORGANIZATION ( #200, #192 ) ;
#26 = CYLINDRICAL_SURFACE ( 'NONE', #183, 3.249999999999968026 ) ;
#27 = AXIS2_PLACEMENT_3D ( 'NONE', #42, #24, #105 ) ;
#28 = DIRECTION ( 'NONE',  ( 3.491481338843133355E-15, 1.224646799147354045E-15, 1.000000000000000000 ) ) ;
#29 = CYLINDRICAL_SURFACE ( 'NONE', #58, 4.000000000000000000 ) ;
#30 = ADVANCED_FACE ( 'NONE', ( #191, #248 ), #178, .T. ) ;
#31 = LOCAL_TIME ( 11, 34, 12.00000000000000000, #5 ) ;
#32 = SECURITY_CLASSIFICATION ( '', '', #20 ) ;
#33 = PRODUCT_DEFINITION ( 'UNKNOWN', '', #196, #181 ) ;
#34 = EDGE_LOOP ( 'NONE', ( #68 ) ) ;
#35 = CARTESIAN_POINT ( 'NONE',  ( 0.0000000000000000000, 0.0000000000000000000, 0.0000000000000000000 ) ) ;
#36 = CARTESIAN_POINT ( 'NONE',  ( 2.758270257686075477E-13, -9.674709713264090904E-15, 79.00000000000000000 ) ) ;
#37 = COORDINATED_UNIVERSAL_TIME_OFFSET ( 1, 0, .AHEAD. ) ;
#38 = APPROVAL_STATUS ( 'not_yet_approved' ) ;
#39 = CC_DESIGN_DATE_AND_TIME_ASSIGNMENT ( #245, #165, ( #33 ) ) ;
#40 = CARTESIAN_POINT ( 'NONE',  ( 1.646759390886346861E-13, 5.776054405844320951E-14, 47.16506350946110615 ) ) ;
#41 = APPROVAL_DATE_TIME ( #140, #255 ) ;
#42 = CARTESIAN_POINT ( 'NONE',  ( 1.396592535537253342E-13, 2.999519565323705910E-32, 40.00000000000000000 ) ) ;
#43 = PERSON_AND_ORGANIZATION_ROLE ( 'design_owner' ) ;
#44 = FACE_OUTER_BOUND ( 'NONE', #132, .T. ) ;
#45 = CC_DESIGN_APPROVAL ( #69, ( #196 ) ) ;
#46 = CARTESIAN_POINT ( 'NONE',  ( 0.0000000000000000000, 0.0000000000000000000, 0.0000000000000000000 ) ) ;
#47 = DIRECTION ( 'NONE',  ( -3.491481338843133355E-15, -1.224646799147354045E-15, -1.000000000000000000 ) ) ;
#48 = EDGE_LOOP ( 'NONE', ( #111 ) ) ;
#49 = AXIS2_PLACEMENT_3D ( 'NONE', #148, #88, #172 ) ;
#50 = EDGE_LOOP ( 'NONE', ( #179 ) ) ;
#51 = CARTESIAN_POINT ( 'NONE',  ( 3.304067730170486725E-15, 1.158910954185439147E-15, 0.9463226090921211808 ) ) ;
#52 = EDGE_LOOP ( 'NONE', ( #110 ) ) ;
#53 = EDGE_CURVE ( 'NONE', #157, #157, #209, .T. ) ;
#54 = CARTESIAN_POINT ( 'NONE',  ( 3.304067730170475287E-15, 2.600000000000000089, 0.9463226090921180722 ) ) ;
#55 = EDGE_LOOP ( 'NONE', ( #130 ) ) ;
#56 = CARTESIAN_POINT ( 'NONE',  ( 2.730338406975330410E-13, 3.999999999999992450, 78.19999999999998863 ) ) ;
#57 = CONICAL_SURFACE ( 'NONE', #122, 2.599999999999998312, 1.221730476396032161 ) ;
#58 = AXIS2_PLACEMENT_3D ( 'NONE', #46, #151, #257 ) ;
#59 = DIRECTION ( 'NONE',  ( 0.0000000000000000000, 0.0000000000000000000, 1.000000000000000000 ) ) ;
#60 = CC_DESIGN_PERSON_AND_ORGANIZATION_ASSIGNMENT ( #160, #8, ( #196 ) ) ;
#61 = DIRECTION ( 'NONE',  ( 1.000000000000000000, 0.0000000000000000000, 0.0000000000000000000 ) ) ;
#62 = LOCAL_TIME ( 11, 34, 12.00000000000000000, #190 ) ;
#63 = DIRECTION ( 'NONE',  ( 0.0000000000000000000, -1.000000000000000000, 0.0000000000000000000 ) ) ;
#64 = PERSON_AND_ORGANIZATION ( #200, #192 ) ;
#65 = ADVANCED_FACE ( 'NONE', ( #145 ), #229, .F. ) ;
#66 = FACE_OUTER_BOUND ( 'NONE', #72, .T. ) ;
#67 = AXIS2_PLACEMENT_3D ( 'NONE', #166, #251, #63 ) ;
#68 = ORIENTED_EDGE ( 'NONE', *, *, #143, .F. ) ;
#69 = APPROVAL ( #76, 'UNSPECIFIED' ) ;
#70 = FACE_OUTER_BOUND ( 'NONE', #133, .T. ) ;
#71 = CIRCLE ( 'NONE', #12, 3.249999999999968026 ) ;
#72 = EDGE_LOOP ( 'NONE', ( #240 ) ) ;
#73 = ORIENTED_EDGE ( 'NONE', *, *, #14, .T. ) ;
#74 = CLOSED_SHELL ( 'NONE', ( #129, #221, #101, #95, #30, #65 ) ) ;
#75 = APPROVAL_PERSON_ORGANIZATION ( #118, #255, #226 ) ;
#76 = APPROVAL_STATUS ( 'not_yet_approved' ) ;
#77 =( NAMED_UNIT ( * ) SI_UNIT ( $, .STERADIAN. ) SOLID_ANGLE_UNIT ( ) );
#78 = CARTESIAN_POINT ( 'NONE',  ( 1.616522275523575856E-13, 5.669996881971843665E-14, 46.29903810567677169 ) ) ;
#79 = APPLICATION_CONTEXT ( 'configuration controlled 3d designs of mechanical parts and assemblies' ) ;
#80 = ADVANCED_FACE ( 'NONE', ( #9, #232 ), #252, .T. ) ;
#81 = PERSON_AND_ORGANIZATION ( #200, #192 ) ;
#82 = PERSON_AND_ORGANIZATION_ROLE ( 'creator' ) ;
#83 = DIRECTION ( 'NONE',  ( -4.266675569104071967E-30, 1.000000000000000000, -1.200962406445493592E-15 ) ) ;
#84 = APPLICATION_PROTOCOL_DEFINITION ( 'international standard', 'config_control_design', 1994, #16 ) ;
#85 = DIRECTION ( 'NONE',  ( 0.0000000000000000000, 1.000000000000000000, 0.0000000000000000000 ) ) ;
#86 = AXIS2_PLACEMENT_3D ( 'NONE', #247, #141, #223 ) ;
#87 = PLANE ( 'NONE',  #167 ) ;
#88 = DIRECTION ( 'NONE',  ( -3.491481338843133355E-15, -1.224646799147354045E-15, -1.000000000000000000 ) ) ;
#89 = AXIS2_PLACEMENT_3D ( 'NONE', #35, #59, #61 ) ;
#90 = CYLINDRICAL_SURFACE ( 'NONE', #21, 3.249999999999968026 ) ;
#91 = ADVANCED_FACE ( 'NONE', ( #44 ), #87, .T. ) ;
#92 = DIRECTION ( 'NONE',  ( -4.296305260556143782E-30, 1.000000000000000000, -1.209302423156909429E-15 ) ) ;
#93 = CARTESIAN_POINT ( 'NONE',  ( 1.396592535537253342E-13, -3.249999999999919176, 40.00000000000000000 ) ) ;
#94 = EDGE_LOOP ( 'NONE', ( #115 ) ) ;
#95 = ADVANCED_FACE ( 'NONE', ( #170, #66 ), #26, .T. ) ;
#96 = CC_DESIGN_APPROVAL ( #187, ( #32 ) ) ;
#97 = EDGE_LOOP ( 'NONE', ( #156 ) ) ;
#98 = EDGE_CURVE ( 'NONE', #99, #99, #131, .T. ) ;
#99 = VERTEX_POINT ( 'NONE', #56 ) ;
#100 = APPROVAL_ROLE ( '' ) ;
#101 = ADVANCED_FACE ( 'NONE', ( #250 ), #199, .F. ) ;
#102 = CIRCLE ( 'NONE', #175, 3.200000000000001510 ) ;
#103 = PERSON_AND_ORGANIZATION_ROLE ( 'design_supplier' ) ;
#104 = PERSON_AND_ORGANIZATION ( #200, #192 ) ;
#105 = DIRECTION ( 'NONE',  ( -4.275831445896958607E-31, -1.000000000000000000, -1.224646799147353207E-16 ) ) ;
#106 = DIRECTION ( 'NONE',  ( -4.266675569104071967E-30, 1.000000000000000000, -1.200962406445493592E-15 ) ) ;
#107 = CARTESIAN_POINT ( 'NONE',  ( 1.396592535537253342E-13, -3.249999999999919176, 40.00000000000000000 ) ) ;
#108 = CC_DESIGN_APPROVAL ( #255, ( #33 ) ) ;
#109 = ORIENTED_EDGE ( 'NONE', *, *, #180, .F. ) ;
#110 = ORIENTED_EDGE ( 'NONE', *, *, #180, .T. ) ;
#111 = ORIENTED_EDGE ( 'NONE', *, *, #137, .T. ) ;
#112 = CARTESIAN_POINT ( 'NONE',  ( 4.510762543086880852E-15, 3.250000000000000000, 1.291933739672077364 ) ) ;
#113 = EDGE_LOOP ( 'NONE', ( #235 ) ) ;
#114 = VERTEX_POINT ( 'NONE', #238 ) ;
#115 = ORIENTED_EDGE ( 'NONE', *, *, #143, .T. ) ;
#116 = LOCAL_TIME ( 11, 34, 12.00000000000000000, #201 ) ;
#117 = PRODUCT_RELATED_PRODUCT_CATEGORY ( 'detail', '', ( #253 ) ) ;
#118 = PERSON_AND_ORGANIZATION ( #200, #192 ) ;
#119 = APPLICATION_PROTOCOL_DEFINITION ( 'international standard', 'config_control_design', 1994, #79 ) ;
#120 = CARTESIAN_POINT ( 'NONE',  ( 2.730338406975330410E-13, -9.576737969332300892E-15, 78.19999999999998863 ) ) ;
#121 = CARTESIAN_POINT ( 'NONE',  ( 1.571166602479410136E-13, 5.510910596163094289E-14, 45.00000000000000711 ) ) ;
#122 = AXIS2_PLACEMENT_3D ( 'NONE', #51, #134, #215 ) ;
#123 = APPROVAL_DATE_TIME ( #243, #187 ) ;
#124 = DIRECTION ( 'NONE',  ( -3.491481338843133355E-15, 1.224646799147353207E-16, -1.000000000000000000 ) ) ;
#125 = DIRECTION ( 'NONE',  ( 3.491481338843133355E-15, 1.224646799147354045E-15, 1.000000000000000000 ) ) ;
#126 = CALENDAR_DATE ( 2021, 15, 10 ) ;
#127 = CIRCLE ( 'NONE', #153, 3.249999999999939160 ) ;
#128 = CARTESIAN_POINT ( 'NONE',  ( 1.396592535537253342E-13, 2.999519565323705910E-32, 40.00000000000000000 ) ) ;
#129 = ADVANCED_FACE ( 'NONE', ( #144, #228 ), #29, .T. ) ;
#130 = ORIENTED_EDGE ( 'NONE', *, *, #150, .T. ) ;
#131 = CIRCLE ( 'NONE', #213, 4.000000000000001776 ) ;
#132 = EDGE_LOOP ( 'NONE', ( #236 ) ) ;
#133 = EDGE_LOOP ( 'NONE', ( #73 ) ) ;
#134 = DIRECTION ( 'NONE',  ( 3.491481338843133355E-15, 1.224646799147354045E-15, 1.000000000000000000 ) ) ;
#135 = ORIENTED_EDGE ( 'NONE', *, *, #237, .F. ) ;
#136 = CIRCLE ( 'NONE', #203, 4.000000000000000000 ) ;
#137 = EDGE_CURVE ( 'NONE', #220, #220, #71, .T. ) ;
#138 = VERTEX_POINT ( 'NONE', #242 ) ;
#139 = PERSON_AND_ORGANIZATION ( #200, #192 ) ;
#140 = DATE_AND_TIME ( #186, #225 ) ;
#141 = DIRECTION ( 'NONE',  ( -3.491481338843133355E-15, 1.224646799147353207E-16, -1.000000000000000000 ) ) ;
#142 = LOCAL_TIME ( 11, 34, 12.00000000000000000, #207 ) ;
#143 = EDGE_CURVE ( 'NONE', #214, #214, #102, .T. ) ;
#144 = FACE_OUTER_BOUND ( 'NONE', #152, .T. ) ;
#145 = FACE_OUTER_BOUND ( 'NONE', #97, .T. ) ;
#146 = DIRECTION ( 'NONE',  ( -7.585201011740640738E-30, 1.000000000000000000, -2.135044278125341180E-15 ) ) ;
#147 = APPROVAL_ROLE ( '' ) ;
#148 = CARTESIAN_POINT ( 'NONE',  ( 4.510762543086894263E-15, 1.582162518999885493E-15, 1.291933739672081360 ) ) ;
#149 =( GEOMETRIC_REPRESENTATION_CONTEXT ( 3 ) GLOBAL_UNCERTAINTY_ASSIGNED_CONTEXT ( ( #158 ) ) GLOBAL_UNIT_ASSIGNED_CONTEXT ( ( #154, #23, #77 ) ) REPRESENTATION_CONTEXT ( 'NONE', 'WORKASPACE' ) );
#150 = EDGE_CURVE ( 'NONE', #138, #138, #127, .T. ) ;
#151 = DIRECTION ( 'NONE',  ( -3.491481338843133355E-15, 1.224646799147353207E-16, -1.000000000000000000 ) ) ;
#152 = EDGE_LOOP ( 'NONE', ( #177 ) ) ;
#153 = AXIS2_PLACEMENT_3D ( 'NONE', #121, #164, #146 ) ;
#154 =( LENGTH_UNIT ( ) NAMED_UNIT ( * ) SI_UNIT ( .MILLI., .METRE. ) );
#155 = FACE_BOUND ( 'NONE', #94, .T. ) ;
#156 = ORIENTED_EDGE ( 'NONE', *, *, #53, .T. ) ;
#157 = VERTEX_POINT ( 'NONE', #107 ) ;
#158 = UNCERTAINTY_MEASURE_WITH_UNIT (LENGTH_MEASURE( 1.000000000000000082E-05 ), #154, 'distance_accuracy_value', 'NONE');
#159 = AXIS2_PLACEMENT_3D ( 'NONE', #40, #125, #22 ) ;
#160 = PERSON_AND_ORGANIZATION ( #200, #192 ) ;
#161 = DIRECTION ( 'NONE',  ( 0.0000000000000000000, 1.000000000000000000, 0.0000000000000000000 ) ) ;
#162 = MECHANICAL_CONTEXT ( 'NONE', #79, 'mechanical' ) ;
#163 = DIRECTION ( 'NONE',  ( 0.0000000000000000000, 1.000000000000000000, 0.0000000000000000000 ) ) ;
#164 = DIRECTION ( 'NONE',  ( -3.491481338843133355E-15, -1.224646799147354045E-15, -1.000000000000000000 ) ) ;
#165 = DATE_TIME_ROLE ( 'creation_date' ) ;
#166 = CARTESIAN_POINT ( 'NONE',  ( 1.396592535537253342E-13, 4.898587196589416655E-14, 40.00000000000000000 ) ) ;
#167 = AXIS2_PLACEMENT_3D ( 'NONE', #128, #173, #208 ) ;
#168 = CALENDAR_DATE ( 2021, 15, 10 ) ;
#169 = CC_DESIGN_PERSON_AND_ORGANIZATION_ASSIGNMENT ( #81, #222, ( #32 ) ) ;
#170 = FACE_OUTER_BOUND ( 'NONE', #55, .T. ) ;
#171 = FACE_OUTER_BOUND ( 'NONE', #48, .T. ) ;
#172 = DIRECTION ( 'NONE',  ( -4.266675569104032731E-30, 1.000000000000000000, -1.200962406445482548E-15 ) ) ;
#173 = DIRECTION ( 'NONE',  ( 3.491481338843133355E-15, -1.224646799147353207E-16, 1.000000000000000000 ) ) ;
#174 = PRODUCT_DEFINITION_SHAPE ( 'NONE', 'NONE',  #33 ) ;
#175 = AXIS2_PLACEMENT_3D ( 'NONE', #211, #11, #161 ) ;
#176 = EDGE_LOOP ( 'NONE', ( #109 ) ) ;
#177 = ORIENTED_EDGE ( 'NONE', *, *, #237, .T. ) ;
#178 = CONICAL_SURFACE ( 'NONE', #159, 4.499999999999936939, 0.5235987755982974834 ) ;
#179 = ORIENTED_EDGE ( 'NONE', *, *, #150, .F. ) ;
#180 = EDGE_CURVE ( 'NONE', #219, #219, #241, .T. ) ;
#181 = DESIGN_CONTEXT ( 'detailed design', #16, 'design' ) ;
#182 = CLOSED_SHELL ( 'NONE', ( #91, #206, #80, #17 ) ) ;
#183 = AXIS2_PLACEMENT_3D ( 'NONE', #254, #10, #106 ) ;
#184 = CALENDAR_DATE ( 2021, 15, 10 ) ;
#185 = APPROVAL_PERSON_ORGANIZATION ( #25, #187, #100 ) ;
#186 = CALENDAR_DATE ( 2021, 15, 10 ) ;
#187 = APPROVAL ( #38, 'UNSPECIFIED' ) ;
#188 = CARTESIAN_POINT ( 'NONE',  ( 3.304067730170486725E-15, 1.158910954185439147E-15, 0.9463226090921211808 ) ) ;
#189 = DATE_TIME_ROLE ( 'classification_date' ) ;
#190 = COORDINATED_UNIVERSAL_TIME_OFFSET ( 1, 0, .AHEAD. ) ;
#191 = FACE_BOUND ( 'NONE', #50, .T. ) ;
#192 = ORGANIZATION ( 'UNSPECIFIED', 'UNSPECIFIED', '' ) ;
#193 = APPROVAL_STATUS ( 'not_yet_approved' ) ;
#194 = DIRECTION ( 'NONE',  ( 4.266675569104033431E-30, -1.000000000000000000, 1.200962406445482745E-15 ) ) ;
#195 = DIRECTION ( 'NONE',  ( 0.0000000000000000000, -1.000000000000000000, 0.0000000000000000000 ) ) ;
#196 = PRODUCT_DEFINITION_FORMATION_WITH_SPECIFIED_SOURCE ( 'ANY', '', #253, .NOT_KNOWN. ) ;
#197 = MANIFOLD_SOLID_BREP ( 'Corps-Déplacer/Copier1[1]', #74 ) ;
#198 = MANIFOLD_SOLID_BREP ( 'Corps-Déplacer/Copier1[2]', #182 ) ;
#199 = PLANE ( 'NONE',  #86 ) ;
#200 = PERSON ( 'UNSPECIFIED', 'UNSPECIFIED', 'UNSPECIFIED', ('UNSPECIFIED'), ('UNSPECIFIED'), ('UNSPECIFIED') ) ;
#201 = COORDINATED_UNIVERSAL_TIME_OFFSET ( 1, 0, .AHEAD. ) ;
#202 = CC_DESIGN_PERSON_AND_ORGANIZATION_ASSIGNMENT ( #104, #82, ( #33 ) ) ;
#203 = AXIS2_PLACEMENT_3D ( 'NONE', #78, #204, #227 ) ;
#204 = DIRECTION ( 'NONE',  ( 3.491481338843133355E-15, 1.224646799147354045E-15, 1.000000000000000000 ) ) ;
#205 = PERSON_AND_ORGANIZATION ( #200, #192 ) ;
#206 = ADVANCED_FACE ( 'NONE', ( #70 ), #57, .T. ) ;
#207 = COORDINATED_UNIVERSAL_TIME_OFFSET ( 1, 0, .AHEAD. ) ;
#208 = DIRECTION ( 'NONE',  ( -4.275831445896958607E-31, -1.000000000000000000, -1.224646799147353207E-16 ) ) ;
#209 = CIRCLE ( 'NONE', #67, 3.249999999999968026 ) ;
#210 = DIRECTION ( 'NONE',  ( -3.491481338843133355E-15, 1.224646799147353207E-16, -1.000000000000000000 ) ) ;
#211 = CARTESIAN_POINT ( 'NONE',  ( 2.758270257686075477E-13, -9.674709713264090904E-15, 79.00000000000000000 ) ) ;
#212 = CARTESIAN_POINT ( 'NONE',  ( 2.758270257686075477E-13, 3.199999999999991740, 79.00000000000000000 ) ) ;
#213 = AXIS2_PLACEMENT_3D ( 'NONE', #120, #6, #163 ) ;
#214 = VERTEX_POINT ( 'NONE', #212 ) ;
#215 = DIRECTION ( 'NONE',  ( 4.296305260556144483E-30, -1.000000000000000000, 1.209302423156909626E-15 ) ) ;
#216 = CC_DESIGN_PERSON_AND_ORGANIZATION_ASSIGNMENT ( #64, #43, ( #253 ) ) ;
#217 = AXIS2_PLACEMENT_3D ( 'NONE', #231, #28, #194 ) ;
#218 = CC_DESIGN_PERSON_AND_ORGANIZATION_ASSIGNMENT ( #139, #103, ( #196 ) ) ;
#219 = VERTEX_POINT ( 'NONE', #112 ) ;
#220 = VERTEX_POINT ( 'NONE', #93 ) ;
#221 = ADVANCED_FACE ( 'NONE', ( #259, #155 ), #2, .T. ) ;
#222 = PERSON_AND_ORGANIZATION_ROLE ( 'classification_officer' ) ;
#223 = DIRECTION ( 'NONE',  ( 4.275831445896958607E-31, 1.000000000000000000, 1.224646799147353207E-16 ) ) ;
#224 = CIRCLE ( 'NONE', #262, 2.599999999999998757 ) ;
#225 = LOCAL_TIME ( 11, 34, 12.00000000000000000, #37 ) ;
#226 = APPROVAL_ROLE ( '' ) ;
#227 = DIRECTION ( 'NONE',  ( 6.162975822039154730E-30, -1.000000000000000000, 1.734723475976807094E-15 ) ) ;
#228 = FACE_OUTER_BOUND ( 'NONE', #256, .T. ) ;
#229 = PLANE ( 'NONE',  #27 ) ;
#230 = APPROVAL_DATE_TIME ( #3, #69 ) ;
#231 = CARTESIAN_POINT ( 'NONE',  ( 4.510762543086894263E-15, 1.582162518999885493E-15, 1.291933739672081360 ) ) ;
#232 = FACE_OUTER_BOUND ( 'NONE', #52, .T. ) ;
#233 = FACE_OUTER_BOUND ( 'NONE', #176, .T. ) ;
#234 = CARTESIAN_POINT ( 'NONE',  ( 1.396592535537253342E-13, 4.898587196589416655E-14, 40.00000000000000000 ) ) ;
#235 = ORIENTED_EDGE ( 'NONE', *, *, #98, .F. ) ;
#236 = ORIENTED_EDGE ( 'NONE', *, *, #137, .F. ) ;
#237 = EDGE_CURVE ( 'NONE', #114, #114, #136, .T. ) ;
#238 = CARTESIAN_POINT ( 'NONE',  ( 1.616522275523576109E-13, -3.999999999999943601, 46.29903810567677880 ) ) ;
#239 = VERTEX_POINT ( 'NONE', #54 ) ;
#240 = ORIENTED_EDGE ( 'NONE', *, *, #53, .F. ) ;
#241 = CIRCLE ( 'NONE', #49, 3.249999999999998224 ) ;
#242 = CARTESIAN_POINT ( 'NONE',  ( 1.571166602479409884E-13, 3.249999999999994227, 45.00000000000000000 ) ) ;
#243 = DATE_AND_TIME ( #184, #31 ) ;
#244 = CC_DESIGN_SECURITY_CLASSIFICATION ( #32, ( #196 ) ) ;
#245 = DATE_AND_TIME ( #168, #116 ) ;
#246 = DATE_AND_TIME ( #126, #142 ) ;
#247 = CARTESIAN_POINT ( 'NONE',  ( 2.758270257686075477E-13, 2.399615652258959035E-32, 79.00000000000000000 ) ) ;
#248 = FACE_OUTER_BOUND ( 'NONE', #261, .T. ) ;
#249 = CC_DESIGN_DATE_AND_TIME_ASSIGNMENT ( #246, #189, ( #32 ) ) ;
#250 = FACE_OUTER_BOUND ( 'NONE', #34, .T. ) ;
#251 = DIRECTION ( 'NONE',  ( -3.491481338843133355E-15, 1.224646799147353207E-16, -1.000000000000000000 ) ) ;
#252 = CONICAL_SURFACE ( 'NONE', #217, 3.249999999999997780, 1.082104136236485381 ) ;
#253 = PRODUCT ( '62877', '62877', '', ( #162 ) ) ;
#254 = CARTESIAN_POINT ( 'NONE',  ( -3.491481338843130200E-15, -1.224646799147353059E-15, -0.9999999999999991118 ) ) ;
#255 = APPROVAL ( #193, 'UNSPECIFIED' ) ;
#256 = EDGE_LOOP ( 'NONE', ( #13 ) ) ;
#257 = DIRECTION ( 'NONE',  ( 4.275831445896958607E-31, 1.000000000000000000, 1.224646799147353207E-16 ) ) ;
#258 = AXIS2_PLACEMENT_3D ( 'NONE', #36, #124, #85 ) ;
#259 = FACE_OUTER_BOUND ( 'NONE', #113, .T. ) ;
#260 = ORIENTED_EDGE ( 'NONE', *, *, #14, .F. ) ;
#261 = EDGE_LOOP ( 'NONE', ( #135 ) ) ;
#262 = AXIS2_PLACEMENT_3D ( 'NONE', #188, #18, #92 ) ;
#263 = APPROVAL_PERSON_ORGANIZATION ( #205, #69, #147 ) ;
ENDSEC;
END-ISO-10303-21;
