ISO-10303-21;
HEADER;
FILE_DESCRIPTION (( 'STEP AP203' ),
    '1' );
FILE_NAME ('62874.step',
    '2021-10-15T09:34:12',
    ( '' ),
    ( '' ),
    'SwSTEP 2.0',
    'SolidWorks 2019',
    '' );
FILE_SCHEMA (( 'CONFIG_CONTROL_DESIGN' ));
ENDSEC;

DATA;
#1 = AXIS2_PLACEMENT_3D ( 'NONE', #235, #117, #7 ) ;
#2 = CARTESIAN_POINT ( 'NONE',  ( 1.396592535537253342E-13, -3.174999999999918554, 40.00000000000000000 ) ) ;
#3 = PERSON_AND_ORGANIZATION_ROLE ( 'design_supplier' ) ;
#4 = ADVANCED_FACE ( 'NONE', ( #168, #30 ), #6, .T. ) ;
#5 = SECURITY_CLASSIFICATION_LEVEL ( 'unclassified' ) ;
#6 = CYLINDRICAL_SURFACE ( 'NONE', #118, 3.174999999999967848 ) ;
#7 = DIRECTION ( 'NONE',  ( 6.162975822039154730E-30, -1.000000000000000000, 1.734723475976807094E-15 ) ) ;
#8 = AXIS2_PLACEMENT_3D ( 'NONE', #197, #13, #14 ) ;
#9 = DIRECTION ( 'NONE',  ( -4.275831445896958607E-31, -1.000000000000000000, -1.224646799147353207E-16 ) ) ;
#10 = CARTESIAN_POINT ( 'NONE',  ( 2.758270257686075477E-13, 2.399615652258959035E-32, 79.00000000000000000 ) ) ;
#11 = FACE_OUTER_BOUND ( 'NONE', #258, .T. ) ;
#12 = CC_DESIGN_SECURITY_CLASSIFICATION ( #27, ( #216 ) ) ;
#13 = DIRECTION ( 'NONE',  ( 3.491481338843133355E-15, 1.224646799147354045E-15, 1.000000000000000000 ) ) ;
#14 = DIRECTION ( 'NONE',  ( 5.478200730701547397E-30, -1.000000000000000000, 1.541976423090516735E-15 ) ) ;
#15 = FACE_OUTER_BOUND ( 'NONE', #76, .T. ) ;
#16 = AXIS2_PLACEMENT_3D ( 'NONE', #95, #218, #170 ) ;
#17 = EDGE_CURVE ( 'NONE', #176, #176, #156, .T. ) ;
#18 = DIRECTION ( 'NONE',  ( -3.491481338843133355E-15, 1.224646799147353207E-16, -1.000000000000000000 ) ) ;
#19 = ORIENTED_EDGE ( 'NONE', *, *, #163, .T. ) ;
#20 = DATE_AND_TIME ( #204, #175 ) ;
#21 = ORIENTED_EDGE ( 'NONE', *, *, #230, .T. ) ;
#22 = DIRECTION ( 'NONE',  ( 1.000000000000000000, 0.0000000000000000000, 0.0000000000000000000 ) ) ;
#23 = ADVANCED_FACE ( 'NONE', ( #172 ), #211, .F. ) ;
#24 =( NAMED_UNIT ( * ) PLANE_ANGLE_UNIT ( ) SI_UNIT ( $, .RADIAN. ) );
#25 = PERSON_AND_ORGANIZATION ( #41, #104 ) ;
#26 = EDGE_LOOP ( 'NONE', ( #21 ) ) ;
#27 = SECURITY_CLASSIFICATION ( '', '', #5 ) ;
#28 = EDGE_LOOP ( 'NONE', ( #248 ) ) ;
#29 = COORDINATED_UNIVERSAL_TIME_OFFSET ( 1, 0, .AHEAD. ) ;
#30 = FACE_OUTER_BOUND ( 'NONE', #46, .T. ) ;
#31 = DIRECTION ( 'NONE',  ( -3.491481338843133355E-15, -1.224646799147354045E-15, -1.000000000000000000 ) ) ;
#32 = LOCAL_TIME ( 11, 34, 12.00000000000000000, #29 ) ;
#33 = PERSON_AND_ORGANIZATION ( #41, #104 ) ;
#34 = DIRECTION ( 'NONE',  ( 0.0000000000000000000, 1.000000000000000000, 0.0000000000000000000 ) ) ;
#35 = DIRECTION ( 'NONE',  ( -4.229493211203344146E-30, 1.000000000000000000, -1.233014235375672444E-15 ) ) ;
#36 = CIRCLE ( 'NONE', #135, 3.174999999999938538 ) ;
#37 = ORIENTED_EDGE ( 'NONE', *, *, #215, .F. ) ;
#38 = AXIS2_PLACEMENT_3D ( 'NONE', #231, #50, #131 ) ;
#39 = EDGE_LOOP ( 'NONE', ( #160 ) ) ;
#40 = PERSON_AND_ORGANIZATION ( #41, #104 ) ;
#41 = PERSON ( 'UNSPECIFIED', 'UNSPECIFIED', 'UNSPECIFIED', ('UNSPECIFIED'), ('UNSPECIFIED'), ('UNSPECIFIED') ) ;
#42 = DATE_TIME_ROLE ( 'creation_date' ) ;
#43 = APPLICATION_PROTOCOL_DEFINITION ( 'international standard', 'config_control_design', 1994, #56 ) ;
#44 = PERSON_AND_ORGANIZATION ( #41, #104 ) ;
#45 = APPROVAL_ROLE ( '' ) ;
#46 = EDGE_LOOP ( 'NONE', ( #141 ) ) ;
#47 = AXIS2_PLACEMENT_3D ( 'NONE', #250, #229, #34 ) ;
#48 = DIRECTION ( 'NONE',  ( -3.491481338843133355E-15, 1.224646799147353207E-16, -1.000000000000000000 ) ) ;
#49 = CC_DESIGN_PERSON_AND_ORGANIZATION_ASSIGNMENT ( #162, #78, ( #122 ) ) ;
#50 = DIRECTION ( 'NONE',  ( -3.491481338843133355E-15, 1.224646799147353207E-16, -1.000000000000000000 ) ) ;
#51 = FACE_OUTER_BOUND ( 'NONE', #109, .T. ) ;
#52 = FACE_OUTER_BOUND ( 'NONE', #81, .T. ) ;
#53 = VERTEX_POINT ( 'NONE', #2 ) ;
#54 = VERTEX_POINT ( 'NONE', #77 ) ;
#55 = CARTESIAN_POINT ( 'NONE',  ( 3.240527966128736295E-15, 2.549999999999999822, 0.9281240973788082993 ) ) ;
#56 = APPLICATION_CONTEXT ( 'configuration controlled 3d designs of mechanical parts and assemblies' ) ;
#57 = CARTESIAN_POINT ( 'NONE',  ( 1.571166602479410136E-13, 5.510910596163094289E-14, 45.00000000000000711 ) ) ;
#58 = ORIENTED_EDGE ( 'NONE', *, *, #91, .T. ) ;
#59 =( NAMED_UNIT ( * ) SI_UNIT ( $, .STERADIAN. ) SOLID_ANGLE_UNIT ( ) );
#60 = CIRCLE ( 'NONE', #193, 3.200000000000001510 ) ;
#61 = EDGE_LOOP ( 'NONE', ( #123 ) ) ;
#62 = PERSON_AND_ORGANIZATION_ROLE ( 'design_owner' ) ;
#63 = APPROVAL_DATE_TIME ( #144, #99 ) ;
#64 = APPROVAL_DATE_TIME ( #245, #179 ) ;
#65 = APPROVAL_STATUS ( 'not_yet_approved' ) ;
#66 = EDGE_LOOP ( 'NONE', ( #190 ) ) ;
#67 = APPROVAL_STATUS ( 'not_yet_approved' ) ;
#68 = DIRECTION ( 'NONE',  ( -4.367463180972632613E-30, 1.000000000000000000, -1.229331597148919336E-15 ) ) ;
#69 = AXIS2_PLACEMENT_3D ( 'NONE', #173, #48, #129 ) ;
#70 = DIRECTION ( 'NONE',  ( -3.491481338843133355E-15, -1.224646799147354045E-15, -1.000000000000000000 ) ) ;
#71 = FACE_OUTER_BOUND ( 'NONE', #114, .T. ) ;
#72 = DIRECTION ( 'NONE',  ( 4.367463180972633314E-30, -1.000000000000000000, 1.229331597148919533E-15 ) ) ;
#73 = VERTEX_POINT ( 'NONE', #181 ) ;
#74 = AXIS2_PLACEMENT_3D ( 'NONE', #97, #18, #222 ) ;
#75 = FACE_OUTER_BOUND ( 'NONE', #87, .T. ) ;
#76 = EDGE_LOOP ( 'NONE', ( #19 ) ) ;
#77 = CARTESIAN_POINT ( 'NONE',  ( 2.758270257686075477E-13, 3.199999999999991740, 79.00000000000000000 ) ) ;
#78 = PERSON_AND_ORGANIZATION_ROLE ( 'creator' ) ;
#79 = AXIS2_PLACEMENT_3D ( 'NONE', #89, #31, #68 ) ;
#80 = MANIFOLD_SOLID_BREP ( 'Corps-Déplacer/Copier1[2]', #105 ) ;
#81 = EDGE_LOOP ( 'NONE', ( #203 ) ) ;
#82 = CARTESIAN_POINT ( 'NONE',  ( 1.571166602479409884E-13, 3.174999999999993605, 45.00000000000000000 ) ) ;
#83 = CALENDAR_DATE ( 2021, 15, 10 ) ;
#84 = APPROVAL_ROLE ( '' ) ;
#85 = CONICAL_SURFACE ( 'NONE', #234, 3.174999999999997158, 1.082104136236485159 ) ;
#86 = COORDINATED_UNIVERSAL_TIME_OFFSET ( 1, 0, .AHEAD. ) ;
#87 = EDGE_LOOP ( 'NONE', ( #205 ) ) ;
#88 = DATE_AND_TIME ( #130, #32 ) ;
#89 = CARTESIAN_POINT ( 'NONE',  ( 4.400811440086831844E-15, 1.543596863541917869E-15, 1.260442492167234585 ) ) ;
#90 = ADVANCED_FACE ( 'NONE', ( #191, #148 ), #158, .T. ) ;
#91 = EDGE_CURVE ( 'NONE', #73, #73, #198, .T. ) ;
#92 = ORIENTED_EDGE ( 'NONE', *, *, #230, .F. ) ;
#93 = DIRECTION ( 'NONE',  ( -4.367463180972673251E-30, 1.000000000000000000, -1.229331597148930774E-15 ) ) ;
#94 = CC_DESIGN_DATE_AND_TIME_ASSIGNMENT ( #20, #182, ( #27 ) ) ;
#95 = CARTESIAN_POINT ( 'NONE',  ( 1.396592535537253342E-13, 2.999519565323705910E-32, 40.00000000000000000 ) ) ;
#96 = CIRCLE ( 'NONE', #74, 3.174999999999967848 ) ;
#97 = CARTESIAN_POINT ( 'NONE',  ( 1.396592535537253342E-13, 4.898587196589416655E-14, 40.00000000000000000 ) ) ;
#98 = CARTESIAN_POINT ( 'NONE',  ( 2.730338406975330410E-13, 3.999999999999992450, 78.19999999999998863 ) ) ;
#99 = APPROVAL ( #103, 'UNSPECIFIED' ) ;
#100 = DIRECTION ( 'NONE',  ( -3.491481338843133355E-15, -1.224646799147354045E-15, -1.000000000000000000 ) ) ;
#101 = ADVANCED_FACE ( 'NONE', ( #251, #71 ), #192, .T. ) ;
#102 = CARTESIAN_POINT ( 'NONE',  ( 3.240527966128746945E-15, 1.136624205066488698E-15, 0.9281240973788114079 ) ) ;
#103 = APPROVAL_STATUS ( 'not_yet_approved' ) ;
#104 = ORGANIZATION ( 'UNSPECIFIED', 'UNSPECIFIED', '' ) ;
#105 = CLOSED_SHELL ( 'NONE', ( #145, #256, #214, #4 ) ) ;
#106 = ADVANCED_FACE ( 'NONE', ( #51 ), #213, .F. ) ;
#107 = PERSON_AND_ORGANIZATION_ROLE ( 'creator' ) ;
#108 = COORDINATED_UNIVERSAL_TIME_OFFSET ( 1, 0, .AHEAD. ) ;
#109 = EDGE_LOOP ( 'NONE', ( #37 ) ) ;
#110 = CIRCLE ( 'NONE', #125, 2.549999999999998490 ) ;
#111 = CYLINDRICAL_SURFACE ( 'NONE', #38, 4.000000000000000000 ) ;
#112 = DIRECTION ( 'NONE',  ( -3.491481338843133355E-15, -1.224646799147354045E-15, -1.000000000000000000 ) ) ;
#113 = EDGE_CURVE ( 'NONE', #155, #155, #223, .T. ) ;
#114 = EDGE_LOOP ( 'NONE', ( #202 ) ) ;
#115 = AXIS2_PLACEMENT_3D ( 'NONE', #195, #194, #9 ) ;
#116 = FACE_OUTER_BOUND ( 'NONE', #200, .T. ) ;
#117 = DIRECTION ( 'NONE',  ( 3.491481338843133355E-15, 1.224646799147354045E-15, 1.000000000000000000 ) ) ;
#118 = AXIS2_PLACEMENT_3D ( 'NONE', #249, #112, #93 ) ;
#119 = DIRECTION ( 'NONE',  ( 4.229493211203344847E-30, -1.000000000000000000, 1.233014235375672641E-15 ) ) ;
#120 = DIRECTION ( 'NONE',  ( -7.764378988395935646E-30, 1.000000000000000000, -2.185478394931452779E-15 ) ) ;
#121 = AXIS2_PLACEMENT_3D ( 'NONE', #166, #226, #22 ) ;
#122 = PRODUCT_DEFINITION ( 'UNKNOWN', '', #216, #263 ) ;
#123 = ORIENTED_EDGE ( 'NONE', *, *, #242, .T. ) ;
#124 = CALENDAR_DATE ( 2021, 15, 10 ) ;
#125 = AXIS2_PLACEMENT_3D ( 'NONE', #150, #174, #35 ) ;
#126 = MECHANICAL_CONTEXT ( 'NONE', #56, 'mechanical' ) ;
#127 = DIRECTION ( 'NONE',  ( 0.0000000000000000000, 1.000000000000000000, 0.0000000000000000000 ) ) ;
#128 = CC_DESIGN_APPROVAL ( #219, ( #27 ) ) ;
#129 = DIRECTION ( 'NONE',  ( 0.0000000000000000000, 1.000000000000000000, 0.0000000000000000000 ) ) ;
#130 = CALENDAR_DATE ( 2021, 15, 10 ) ;
#131 = DIRECTION ( 'NONE',  ( 4.275831445896958607E-31, 1.000000000000000000, 1.224646799147353207E-16 ) ) ;
#132 = CARTESIAN_POINT ( 'NONE',  ( -3.491481338843130200E-15, -1.224646799147353059E-15, -0.9999999999999991118 ) ) ;
#133 = AXIS2_PLACEMENT_3D ( 'NONE', #10, #210, #217 ) ;
#134 = CARTESIAN_POINT ( 'NONE',  ( 4.400811440086831844E-15, 1.543596863541917869E-15, 1.260442492167234585 ) ) ;
#135 = AXIS2_PLACEMENT_3D ( 'NONE', #57, #100, #120 ) ;
#136 = DIRECTION ( 'NONE',  ( -3.491481338843133355E-15, 1.224646799147353207E-16, -1.000000000000000000 ) ) ;
#137 = CC_DESIGN_PERSON_AND_ORGANIZATION_ASSIGNMENT ( #40, #246, ( #27 ) ) ;
#138 = EDGE_LOOP ( 'NONE', ( #151 ) ) ;
#139 = LOCAL_TIME ( 11, 34, 12.00000000000000000, #142 ) ;
#140 = PERSON_AND_ORGANIZATION ( #41, #104 ) ;
#141 = ORIENTED_EDGE ( 'NONE', *, *, #17, .F. ) ;
#142 = COORDINATED_UNIVERSAL_TIME_OFFSET ( 1, 0, .AHEAD. ) ;
#143 = APPROVAL_PERSON_ORGANIZATION ( #25, #99, #45 ) ;
#144 = DATE_AND_TIME ( #207, #206 ) ;
#145 = ADVANCED_FACE ( 'NONE', ( #116 ), #196, .T. ) ;
#146 = SHAPE_DEFINITION_REPRESENTATION ( #147, #164 ) ;
#147 = PRODUCT_DEFINITION_SHAPE ( 'NONE', 'NONE',  #122 ) ;
#148 = FACE_BOUND ( 'NONE', #28, .T. ) ;
#149 = AXIS2_PLACEMENT_3D ( 'NONE', #132, #70, #233 ) ;
#150 = CARTESIAN_POINT ( 'NONE',  ( 3.240527966128746945E-15, 1.136624205066488698E-15, 0.9281240973788114079 ) ) ;
#151 = ORIENTED_EDGE ( 'NONE', *, *, #257, .T. ) ;
#152 = FACE_BOUND ( 'NONE', #180, .T. ) ;
#153 = CIRCLE ( 'NONE', #209, 3.174999999999967848 ) ;
#154 = CARTESIAN_POINT ( 'NONE',  ( 2.758270257686075477E-13, -9.674709713264090904E-15, 79.00000000000000000 ) ) ;
#155 = VERTEX_POINT ( 'NONE', #98 ) ;
#156 = CIRCLE ( 'NONE', #79, 3.174999999999997602 ) ;
#157 = UNCERTAINTY_MEASURE_WITH_UNIT (LENGTH_MEASURE( 1.000000000000000082E-05 ), #159, 'distance_accuracy_value', 'NONE');
#158 = CONICAL_SURFACE ( 'NONE', #47, 3.200000000000001510, 0.7853981633974428389 ) ;
#159 =( LENGTH_UNIT ( ) NAMED_UNIT ( * ) SI_UNIT ( .MILLI., .METRE. ) );
#160 = ORIENTED_EDGE ( 'NONE', *, *, #113, .F. ) ;
#161 = VERTEX_POINT ( 'NONE', #82 ) ;
#162 = PERSON_AND_ORGANIZATION ( #41, #104 ) ;
#163 = EDGE_CURVE ( 'NONE', #260, #260, #110, .T. ) ;
#164 = ADVANCED_BREP_SHAPE_REPRESENTATION ( '62874', ( #167, #80, #121 ), #220 ) ;
#165 = CONICAL_SURFACE ( 'NONE', #183, 2.549999999999998046, 1.221730476396032161 ) ;
#166 = CARTESIAN_POINT ( 'NONE',  ( 0.0000000000000000000, 0.0000000000000000000, 0.0000000000000000000 ) ) ;
#167 = MANIFOLD_SOLID_BREP ( 'Corps-Déplacer/Copier1[1]', #221 ) ;
#168 = FACE_OUTER_BOUND ( 'NONE', #26, .T. ) ;
#169 = CC_DESIGN_APPROVAL ( #179, ( #216 ) ) ;
#170 = DIRECTION ( 'NONE',  ( -4.275831445896958607E-31, -1.000000000000000000, -1.224646799147353207E-16 ) ) ;
#171 = APPROVAL_ROLE ( '' ) ;
#172 = FACE_OUTER_BOUND ( 'NONE', #138, .T. ) ;
#173 = CARTESIAN_POINT ( 'NONE',  ( 2.730338406975330410E-13, -9.576737969332300892E-15, 78.19999999999998863 ) ) ;
#174 = DIRECTION ( 'NONE',  ( -3.491481338843133355E-15, -1.224646799147354045E-15, -1.000000000000000000 ) ) ;
#175 = LOCAL_TIME ( 11, 34, 12.00000000000000000, #86 ) ;
#176 = VERTEX_POINT ( 'NONE', #259 ) ;
#177 = APPLICATION_CONTEXT ( 'configuration controlled 3d designs of mechanical parts and assemblies' ) ;
#178 = LOCAL_TIME ( 11, 34, 12.00000000000000000, #108 ) ;
#179 = APPROVAL ( #65, 'UNSPECIFIED' ) ;
#180 = EDGE_LOOP ( 'NONE', ( #228 ) ) ;
#181 = CARTESIAN_POINT ( 'NONE',  ( 1.621057842827992428E-13, -3.999999999999942712, 46.42894191624444744 ) ) ;
#182 = DATE_TIME_ROLE ( 'classification_date' ) ;
#183 = AXIS2_PLACEMENT_3D ( 'NONE', #102, #238, #119 ) ;
#184 = APPROVAL_PERSON_ORGANIZATION ( #140, #179, #84 ) ;
#185 = PRODUCT_RELATED_PRODUCT_CATEGORY ( 'detail', '', ( #247 ) ) ;
#186 = ADVANCED_FACE ( 'NONE', ( #252, #11 ), #111, .T. ) ;
#187 = PERSON_AND_ORGANIZATION ( #41, #104 ) ;
#188 = CC_DESIGN_PERSON_AND_ORGANIZATION_ASSIGNMENT ( #187, #3, ( #216 ) ) ;
#189 = DATE_AND_TIME ( #83, #139 ) ;
#190 = ORIENTED_EDGE ( 'NONE', *, *, #242, .F. ) ;
#191 = FACE_OUTER_BOUND ( 'NONE', #39, .T. ) ;
#192 = CYLINDRICAL_SURFACE ( 'NONE', #149, 3.174999999999967848 ) ;
#193 = AXIS2_PLACEMENT_3D ( 'NONE', #154, #237, #127 ) ;
#194 = DIRECTION ( 'NONE',  ( 3.491481338843133355E-15, -1.224646799147353207E-16, 1.000000000000000000 ) ) ;
#195 = CARTESIAN_POINT ( 'NONE',  ( 1.396592535537253342E-13, 2.999519565323705910E-32, 40.00000000000000000 ) ) ;
#196 = PLANE ( 'NONE',  #115 ) ;
#197 = CARTESIAN_POINT ( 'NONE',  ( 1.651294958190762928E-13, 5.791963034425195510E-14, 47.29496732002877479 ) ) ;
#198 = CIRCLE ( 'NONE', #1, 4.000000000000000000 ) ;
#199 = CARTESIAN_POINT ( 'NONE',  ( 1.396592535537253342E-13, 4.898587196589416655E-14, 40.00000000000000000 ) ) ;
#200 = EDGE_LOOP ( 'NONE', ( #92 ) ) ;
#201 = FACE_BOUND ( 'NONE', #66, .T. ) ;
#202 = ORIENTED_EDGE ( 'NONE', *, *, #257, .F. ) ;
#203 = ORIENTED_EDGE ( 'NONE', *, *, #17, .T. ) ;
#204 = CALENDAR_DATE ( 2021, 15, 10 ) ;
#205 = ORIENTED_EDGE ( 'NONE', *, *, #91, .F. ) ;
#206 = LOCAL_TIME ( 11, 34, 12.00000000000000000, #244 ) ;
#207 = CALENDAR_DATE ( 2021, 15, 10 ) ;
#208 = CARTESIAN_POINT ( 'NONE',  ( 1.396592535537253342E-13, -3.174999999999918554, 40.00000000000000000 ) ) ;
#209 = AXIS2_PLACEMENT_3D ( 'NONE', #199, #136, #255 ) ;
#210 = DIRECTION ( 'NONE',  ( -3.491481338843133355E-15, 1.224646799147353207E-16, -1.000000000000000000 ) ) ;
#211 = PLANE ( 'NONE',  #16 ) ;
#212 = APPROVAL_DATE_TIME ( #88, #219 ) ;
#213 = PLANE ( 'NONE',  #133 ) ;
#214 = ADVANCED_FACE ( 'NONE', ( #152, #52 ), #85, .T. ) ;
#215 = EDGE_CURVE ( 'NONE', #54, #54, #60, .T. ) ;
#216 = PRODUCT_DEFINITION_FORMATION_WITH_SPECIFIED_SOURCE ( 'ANY', '', #247, .NOT_KNOWN. ) ;
#217 = DIRECTION ( 'NONE',  ( 4.275831445896958607E-31, 1.000000000000000000, 1.224646799147353207E-16 ) ) ;
#218 = DIRECTION ( 'NONE',  ( 3.491481338843133355E-15, -1.224646799147353207E-16, 1.000000000000000000 ) ) ;
#219 = APPROVAL ( #67, 'UNSPECIFIED' ) ;
#220 =( GEOMETRIC_REPRESENTATION_CONTEXT ( 3 ) GLOBAL_UNCERTAINTY_ASSIGNED_CONTEXT ( ( #157 ) ) GLOBAL_UNIT_ASSIGNED_CONTEXT ( ( #159, #24, #59 ) ) REPRESENTATION_CONTEXT ( 'NONE', 'WORKASPACE' ) );
#221 = CLOSED_SHELL ( 'NONE', ( #186, #90, #106, #101, #232, #23 ) ) ;
#222 = DIRECTION ( 'NONE',  ( 0.0000000000000000000, -1.000000000000000000, 0.0000000000000000000 ) ) ;
#223 = CIRCLE ( 'NONE', #69, 4.000000000000001776 ) ;
#224 = APPLICATION_PROTOCOL_DEFINITION ( 'international standard', 'config_control_design', 1994, #177 ) ;
#225 = VERTEX_POINT ( 'NONE', #208 ) ;
#226 = DIRECTION ( 'NONE',  ( 0.0000000000000000000, 0.0000000000000000000, 1.000000000000000000 ) ) ;
#227 = CC_DESIGN_DATE_AND_TIME_ASSIGNMENT ( #189, #42, ( #122 ) ) ;
#228 = ORIENTED_EDGE ( 'NONE', *, *, #163, .F. ) ;
#229 = DIRECTION ( 'NONE',  ( -3.491481338843133355E-15, 1.224646799147353207E-16, -1.000000000000000000 ) ) ;
#230 = EDGE_CURVE ( 'NONE', #53, #53, #153, .T. ) ;
#231 = CARTESIAN_POINT ( 'NONE',  ( 0.0000000000000000000, 0.0000000000000000000, 0.0000000000000000000 ) ) ;
#232 = ADVANCED_FACE ( 'NONE', ( #201, #75 ), #239, .T. ) ;
#233 = DIRECTION ( 'NONE',  ( -4.367463180972673251E-30, 1.000000000000000000, -1.229331597148930774E-15 ) ) ;
#234 = AXIS2_PLACEMENT_3D ( 'NONE', #134, #254, #72 ) ;
#235 = CARTESIAN_POINT ( 'NONE',  ( 1.621057842827992176E-13, 5.685905510552718224E-14, 46.42894191624444034 ) ) ;
#236 = CC_DESIGN_PERSON_AND_ORGANIZATION_ASSIGNMENT ( #44, #107, ( #216 ) ) ;
#237 = DIRECTION ( 'NONE',  ( -3.491481338843133355E-15, 1.224646799147353207E-16, -1.000000000000000000 ) ) ;
#238 = DIRECTION ( 'NONE',  ( 3.491481338843133355E-15, 1.224646799147354045E-15, 1.000000000000000000 ) ) ;
#239 = CONICAL_SURFACE ( 'NONE', #8, 4.499999999999936939, 0.5235987755982970393 ) ;
#240 = PERSON_AND_ORGANIZATION ( #41, #104 ) ;
#241 = APPROVAL_PERSON_ORGANIZATION ( #33, #219, #171 ) ;
#242 = EDGE_CURVE ( 'NONE', #161, #161, #36, .T. ) ;
#243 = EDGE_LOOP ( 'NONE', ( #58 ) ) ;
#244 = COORDINATED_UNIVERSAL_TIME_OFFSET ( 1, 0, .AHEAD. ) ;
#245 = DATE_AND_TIME ( #124, #178 ) ;
#246 = PERSON_AND_ORGANIZATION_ROLE ( 'classification_officer' ) ;
#247 = PRODUCT ( '62874', '62874', '', ( #126 ) ) ;
#248 = ORIENTED_EDGE ( 'NONE', *, *, #215, .T. ) ;
#249 = CARTESIAN_POINT ( 'NONE',  ( -3.491481338843130200E-15, -1.224646799147353059E-15, -0.9999999999999991118 ) ) ;
#250 = CARTESIAN_POINT ( 'NONE',  ( 2.758270257686075477E-13, -9.674709713264090904E-15, 79.00000000000000000 ) ) ;
#251 = FACE_OUTER_BOUND ( 'NONE', #61, .T. ) ;
#252 = FACE_OUTER_BOUND ( 'NONE', #243, .T. ) ;
#253 = CC_DESIGN_APPROVAL ( #99, ( #122 ) ) ;
#254 = DIRECTION ( 'NONE',  ( 3.491481338843133355E-15, 1.224646799147354045E-15, 1.000000000000000000 ) ) ;
#255 = DIRECTION ( 'NONE',  ( 0.0000000000000000000, -1.000000000000000000, 0.0000000000000000000 ) ) ;
#256 = ADVANCED_FACE ( 'NONE', ( #15 ), #165, .T. ) ;
#257 = EDGE_CURVE ( 'NONE', #225, #225, #96, .T. ) ;
#258 = EDGE_LOOP ( 'NONE', ( #262 ) ) ;
#259 = CARTESIAN_POINT ( 'NONE',  ( 4.400811440086817644E-15, 3.174999999999999378, 1.260442492167230588 ) ) ;
#260 = VERTEX_POINT ( 'NONE', #55 ) ;
#261 = CC_DESIGN_PERSON_AND_ORGANIZATION_ASSIGNMENT ( #240, #62, ( #247 ) ) ;
#262 = ORIENTED_EDGE ( 'NONE', *, *, #113, .T. ) ;
#263 = DESIGN_CONTEXT ( 'detailed design', #177, 'design' ) ;
ENDSEC;
END-ISO-10303-21;
