ISO-10303-21;
HEADER;
FILE_DESCRIPTION (( 'STEP AP203' ),
    '1' );
FILE_NAME ('62872.step',
    '2021-10-15T09:34:11',
    ( '' ),
    ( '' ),
    'SwSTEP 2.0',
    'SolidWorks 2019',
    '' );
FILE_SCHEMA (( 'CONFIG_CONTROL_DESIGN' ));
ENDSEC;

DATA;
#1 = CALENDAR_DATE ( 2021, 15, 10 ) ;
#2 = CALENDAR_DATE ( 2021, 15, 10 ) ;
#3 = DIRECTION ( 'NONE',  ( -3.491481338843133355E-15, 1.224646799147353207E-16, -1.000000000000000000 ) ) ;
#4 = EDGE_CURVE ( 'NONE', #101, #101, #145, .T. ) ;
#5 = SECURITY_CLASSIFICATION ( '', '', #225 ) ;
#6 = CARTESIAN_POINT ( 'NONE',  ( 2.730338406975330410E-13, -9.576737969332300892E-15, 78.19999999999998863 ) ) ;
#7 = ORIENTED_EDGE ( 'NONE', *, *, #38, .F. ) ;
#8 = ADVANCED_BREP_SHAPE_REPRESENTATION ( '62872', ( #188, #19, #181 ), #58 ) ;
#9 = DIRECTION ( 'NONE',  ( -3.491481338843133355E-15, 1.224646799147353207E-16, -1.000000000000000000 ) ) ;
#10 = ADVANCED_FACE ( 'NONE', ( #212 ), #191, .T. ) ;
#11 = DIRECTION ( 'NONE',  ( 4.333342374871283472E-30, -1.000000000000000000, 1.219727444046193277E-15 ) ) ;
#12 = FACE_OUTER_BOUND ( 'NONE', #92, .T. ) ;
#13 = EDGE_LOOP ( 'NONE', ( #28 ) ) ;
#14 = ADVANCED_FACE ( 'NONE', ( #94 ), #68, .T. ) ;
#15 = FACE_OUTER_BOUND ( 'NONE', #187, .T. ) ;
#16 = CONICAL_SURFACE ( 'NONE', #45, 4.499999999999936939, 0.5235987755982994818 ) ;
#17 = VERTEX_POINT ( 'NONE', #156 ) ;
#18 = UNCERTAINTY_MEASURE_WITH_UNIT (LENGTH_MEASURE( 1.000000000000000082E-05 ), #177, 'distance_accuracy_value', 'NONE');
#19 = MANIFOLD_SOLID_BREP ( 'Corps-Déplacer/Copier1[2]', #244 ) ;
#20 = CIRCLE ( 'NONE', #82, 2.999999999999968914 ) ;
#21 = PERSON_AND_ORGANIZATION ( #79, #221 ) ;
#22 = LOCAL_TIME ( 11, 34, 11.00000000000000000, #182 ) ;
#23 = CARTESIAN_POINT ( 'NONE',  ( 4.163780809003289075E-15, 1.460457709846048557E-15, 1.192554221235767820 ) ) ;
#24 = DIRECTION ( 'NONE',  ( -4.333342374871283472E-30, 1.000000000000000000, -1.219727444046193277E-15 ) ) ;
#25 = EDGE_LOOP ( 'NONE', ( #195 ) ) ;
#26 = FACE_OUTER_BOUND ( 'NONE', #53, .T. ) ;
#27 = DIRECTION ( 'NONE',  ( -3.491481338843133355E-15, -1.224646799147354045E-15, -1.000000000000000000 ) ) ;
#28 = ORIENTED_EDGE ( 'NONE', *, *, #207, .F. ) ;
#29 = PRODUCT_DEFINITION_SHAPE ( 'NONE', 'NONE',  #34 ) ;
#30 = DIRECTION ( 'NONE',  ( -4.365441207277736936E-30, 1.000000000000000000, -1.228762462150239016E-15 ) ) ;
#31 = DIRECTION ( 'NONE',  ( 1.000000000000000000, 0.0000000000000000000, 0.0000000000000000000 ) ) ;
#32 = CC_DESIGN_APPROVAL ( #254, ( #34 ) ) ;
#33 = PERSON_AND_ORGANIZATION_ROLE ( 'design_owner' ) ;
#34 = PRODUCT_DEFINITION ( 'UNKNOWN', '', #179, #178 ) ;
#35 = CARTESIAN_POINT ( 'NONE',  ( 1.571166602479410136E-13, 5.510910596163094289E-14, 45.00000000000000711 ) ) ;
#36 = DIRECTION ( 'NONE',  ( -3.491481338843133355E-15, -1.224646799147354045E-15, -1.000000000000000000 ) ) ;
#37 = CIRCLE ( 'NONE', #259, 2.999999999999968914 ) ;
#38 = EDGE_CURVE ( 'NONE', #121, #121, #158, .T. ) ;
#39 = DIRECTION ( 'NONE',  ( 6.162975822039154730E-30, -1.000000000000000000, 1.734723475976807094E-15 ) ) ;
#40 = APPROVAL_ROLE ( '' ) ;
#41 = AXIS2_PLACEMENT_3D ( 'NONE', #70, #185, #252 ) ;
#42 = APPROVAL ( #224, 'UNSPECIFIED' ) ;
#43 = APPROVAL_DATE_TIME ( #107, #42 ) ;
#44 = APPROVAL_STATUS ( 'not_yet_approved' ) ;
#45 = AXIS2_PLACEMENT_3D ( 'NONE', #110, #234, #251 ) ;
#46 = DIRECTION ( 'NONE',  ( 3.491481338843133355E-15, 1.224646799147354045E-15, 1.000000000000000000 ) ) ;
#47 = APPROVAL_DATE_TIME ( #206, #112 ) ;
#48 = DIRECTION ( 'NONE',  ( 4.365441207277736936E-30, -1.000000000000000000, 1.228762462150239016E-15 ) ) ;
#49 = ORIENTED_EDGE ( 'NONE', *, *, #153, .T. ) ;
#50 = CARTESIAN_POINT ( 'NONE',  ( 3.049908674003527209E-15, 1.069763957709636364E-15, 0.8735285622388814231 ) ) ;
#51 = CONICAL_SURFACE ( 'NONE', #233, 3.200000000000001510, 0.7853981633974428389 ) ;
#52 = DIRECTION ( 'NONE',  ( -3.491481338843133355E-15, 1.224646799147353207E-16, -1.000000000000000000 ) ) ;
#53 = EDGE_LOOP ( 'NONE', ( #231 ) ) ;
#54 = DIRECTION ( 'NONE',  ( 0.0000000000000000000, 1.000000000000000000, 0.0000000000000000000 ) ) ;
#55 = DIRECTION ( 'NONE',  ( 0.0000000000000000000, 1.000000000000000000, 0.0000000000000000000 ) ) ;
#56 = ADVANCED_FACE ( 'NONE', ( #214 ), #154, .F. ) ;
#57 = CARTESIAN_POINT ( 'NONE',  ( 1.396592535537253342E-13, -2.999999999999919620, 40.00000000000000000 ) ) ;
#58 =( GEOMETRIC_REPRESENTATION_CONTEXT ( 3 ) GLOBAL_UNCERTAINTY_ASSIGNED_CONTEXT ( ( #18 ) ) GLOBAL_UNIT_ASSIGNED_CONTEXT ( ( #177, #142, #81 ) ) REPRESENTATION_CONTEXT ( 'NONE', 'WORKASPACE' ) );
#59 = EDGE_LOOP ( 'NONE', ( #229 ) ) ;
#60 = CC_DESIGN_SECURITY_CLASSIFICATION ( #5, ( #179 ) ) ;
#61 = MECHANICAL_CONTEXT ( 'NONE', #124, 'mechanical' ) ;
#62 = CARTESIAN_POINT ( 'NONE',  ( 0.0000000000000000000, 0.0000000000000000000, 0.0000000000000000000 ) ) ;
#63 = PERSON_AND_ORGANIZATION ( #79, #221 ) ;
#64 = PERSON_AND_ORGANIZATION ( #79, #221 ) ;
#65 = PERSON_AND_ORGANIZATION ( #79, #221 ) ;
#66 = DIRECTION ( 'NONE',  ( 0.0000000000000000000, 1.000000000000000000, 0.0000000000000000000 ) ) ;
#67 = PERSON_AND_ORGANIZATION_ROLE ( 'creator' ) ;
#68 = CONICAL_SURFACE ( 'NONE', #125, 2.399999999999998579, 1.221730476396031939 ) ;
#69 = DIRECTION ( 'NONE',  ( 0.0000000000000000000, -1.000000000000000000, 0.0000000000000000000 ) ) ;
#70 = CARTESIAN_POINT ( 'NONE',  ( 2.758270257686075477E-13, 2.399615652258959035E-32, 79.00000000000000000 ) ) ;
#71 = CARTESIAN_POINT ( 'NONE',  ( -3.491481338843130200E-15, -1.224646799147353059E-15, -0.9999999999999991118 ) ) ;
#72 = AXIS2_PLACEMENT_3D ( 'NONE', #35, #36, #194 ) ;
#73 = CC_DESIGN_APPROVAL ( #42, ( #5 ) ) ;
#74 = FACE_OUTER_BOUND ( 'NONE', #59, .T. ) ;
#75 = EDGE_LOOP ( 'NONE', ( #167 ) ) ;
#76 = CARTESIAN_POINT ( 'NONE',  ( 1.396592535537253342E-13, -2.999999999999919620, 40.00000000000000000 ) ) ;
#77 = EDGE_LOOP ( 'NONE', ( #211 ) ) ;
#78 = PERSON_AND_ORGANIZATION ( #79, #221 ) ;
#79 = PERSON ( 'UNSPECIFIED', 'UNSPECIFIED', 'UNSPECIFIED', ('UNSPECIFIED'), ('UNSPECIFIED'), ('UNSPECIFIED') ) ;
#80 = COORDINATED_UNIVERSAL_TIME_OFFSET ( 1, 0, .AHEAD. ) ;
#81 =( NAMED_UNIT ( * ) SI_UNIT ( $, .STERADIAN. ) SOLID_ANGLE_UNIT ( ) );
#82 = AXIS2_PLACEMENT_3D ( 'NONE', #129, #230, #210 ) ;
#83 = EDGE_CURVE ( 'NONE', #202, #202, #37, .T. ) ;
#84 = PERSON_AND_ORGANIZATION_ROLE ( 'design_supplier' ) ;
#85 = AXIS2_PLACEMENT_3D ( 'NONE', #23, #151, #48 ) ;
#86 = ADVANCED_FACE ( 'NONE', ( #116 ), #216, .F. ) ;
#87 = PERSON_AND_ORGANIZATION_ROLE ( 'creator' ) ;
#88 = CARTESIAN_POINT ( 'NONE',  ( 1.396592535537253342E-13, 2.999519565323705910E-32, 40.00000000000000000 ) ) ;
#89 = AXIS2_PLACEMENT_3D ( 'NONE', #136, #27, #30 ) ;
#90 = LOCAL_TIME ( 11, 34, 11.00000000000000000, #243 ) ;
#91 = DIRECTION ( 'NONE',  ( -3.491481338843133355E-15, -1.224646799147354045E-15, -1.000000000000000000 ) ) ;
#92 = EDGE_LOOP ( 'NONE', ( #192 ) ) ;
#93 = CC_DESIGN_PERSON_AND_ORGANIZATION_ASSIGNMENT ( #149, #87, ( #179 ) ) ;
#94 = FACE_OUTER_BOUND ( 'NONE', #130, .T. ) ;
#95 = CARTESIAN_POINT ( 'NONE',  ( 1.396592535537253342E-13, 2.999519565323705910E-32, 40.00000000000000000 ) ) ;
#96 = EDGE_LOOP ( 'NONE', ( #215 ) ) ;
#97 = CIRCLE ( 'NONE', #248, 4.000000000000000000 ) ;
#98 = CARTESIAN_POINT ( 'NONE',  ( -3.491481338843130200E-15, -1.224646799147353059E-15, -0.9999999999999991118 ) ) ;
#99 = CC_DESIGN_DATE_AND_TIME_ASSIGNMENT ( #263, #144, ( #34 ) ) ;
#100 = CYLINDRICAL_SURFACE ( 'NONE', #122, 4.000000000000000000 ) ;
#101 = VERTEX_POINT ( 'NONE', #261 ) ;
#102 = CARTESIAN_POINT ( 'NONE',  ( 1.631640833204962747E-13, 5.723025643908087988E-14, 46.73205080756898155 ) ) ;
#103 = CONICAL_SURFACE ( 'NONE', #85, 2.999999999999998224, 1.082104136236485603 ) ;
#104 = CARTESIAN_POINT ( 'NONE',  ( 1.571166602479409884E-13, 2.999999999999994671, 45.00000000000000000 ) ) ;
#105 = ADVANCED_FACE ( 'NONE', ( #150, #169 ), #253, .T. ) ;
#106 = APPROVAL_PERSON_ORGANIZATION ( #205, #42, #40 ) ;
#107 = DATE_AND_TIME ( #128, #126 ) ;
#108 = CIRCLE ( 'NONE', #72, 2.999999999999939604 ) ;
#109 = PERSON_AND_ORGANIZATION_ROLE ( 'classification_officer' ) ;
#110 = CARTESIAN_POINT ( 'NONE',  ( 1.661877948567733499E-13, 5.829083167780565274E-14, 47.59807621135331601 ) ) ;
#111 = FACE_OUTER_BOUND ( 'NONE', #75, .T. ) ;
#112 = APPROVAL ( #44, 'UNSPECIFIED' ) ;
#113 = EDGE_LOOP ( 'NONE', ( #134 ) ) ;
#114 = AXIS2_PLACEMENT_3D ( 'NONE', #88, #164, #209 ) ;
#115 = FACE_BOUND ( 'NONE', #77, .T. ) ;
#116 = FACE_OUTER_BOUND ( 'NONE', #25, .T. ) ;
#117 = PRODUCT ( '62872', '62872', '', ( #61 ) ) ;
#118 = DIRECTION ( 'NONE',  ( 3.491481338843133355E-15, -1.224646799147353207E-16, 1.000000000000000000 ) ) ;
#119 = PERSON_AND_ORGANIZATION ( #79, #221 ) ;
#120 = VERTEX_POINT ( 'NONE', #239 ) ;
#121 = VERTEX_POINT ( 'NONE', #219 ) ;
#122 = AXIS2_PLACEMENT_3D ( 'NONE', #62, #220, #222 ) ;
#123 = COORDINATED_UNIVERSAL_TIME_OFFSET ( 1, 0, .AHEAD. ) ;
#124 = APPLICATION_CONTEXT ( 'configuration controlled 3d designs of mechanical parts and assemblies' ) ;
#125 = AXIS2_PLACEMENT_3D ( 'NONE', #232, #46, #11 ) ;
#126 = LOCAL_TIME ( 11, 34, 11.00000000000000000, #146 ) ;
#127 = FACE_OUTER_BOUND ( 'NONE', #174, .T. ) ;
#128 = CALENDAR_DATE ( 2021, 15, 10 ) ;
#129 = CARTESIAN_POINT ( 'NONE',  ( 1.396592535537253342E-13, 4.898587196589416655E-14, 40.00000000000000000 ) ) ;
#130 = EDGE_LOOP ( 'NONE', ( #155 ) ) ;
#131 = DIRECTION ( 'NONE',  ( -3.491481338843133355E-15, -1.224646799147354045E-15, -1.000000000000000000 ) ) ;
#132 = AXIS2_PLACEMENT_3D ( 'NONE', #50, #131, #24 ) ;
#133 = DIRECTION ( 'NONE',  ( -4.275831445896958607E-31, -1.000000000000000000, -1.224646799147353207E-16 ) ) ;
#134 = ORIENTED_EDGE ( 'NONE', *, *, #83, .F. ) ;
#135 = ADVANCED_FACE ( 'NONE', ( #228, #74 ), #16, .T. ) ;
#136 = CARTESIAN_POINT ( 'NONE',  ( 4.163780809003289075E-15, 1.460457709846048557E-15, 1.192554221235767820 ) ) ;
#137 = EDGE_LOOP ( 'NONE', ( #7 ) ) ;
#138 = VERTEX_POINT ( 'NONE', #76 ) ;
#139 = APPROVAL_PERSON_ORGANIZATION ( #78, #254, #196 ) ;
#140 = EDGE_LOOP ( 'NONE', ( #190 ) ) ;
#141 = CALENDAR_DATE ( 2021, 15, 10 ) ;
#142 =( NAMED_UNIT ( * ) PLANE_ANGLE_UNIT ( ) SI_UNIT ( $, .RADIAN. ) );
#143 = LOCAL_TIME ( 11, 34, 11.00000000000000000, #80 ) ;
#144 = DATE_TIME_ROLE ( 'creation_date' ) ;
#145 = CIRCLE ( 'NONE', #89, 2.999999999999998224 ) ;
#146 = COORDINATED_UNIVERSAL_TIME_OFFSET ( 1, 0, .AHEAD. ) ;
#147 = SHAPE_DEFINITION_REPRESENTATION ( #29, #8 ) ;
#148 = DIRECTION ( 'NONE',  ( -4.365441207277779675E-30, 1.000000000000000000, -1.228762462150251046E-15 ) ) ;
#149 = PERSON_AND_ORGANIZATION ( #79, #221 ) ;
#150 = FACE_OUTER_BOUND ( 'NONE', #157, .T. ) ;
#151 = DIRECTION ( 'NONE',  ( 3.491481338843133355E-15, 1.224646799147354045E-15, 1.000000000000000000 ) ) ;
#152 = FACE_OUTER_BOUND ( 'NONE', #140, .T. ) ;
#153 = EDGE_CURVE ( 'NONE', #201, #201, #162, .T. ) ;
#154 = PLANE ( 'NONE',  #41 ) ;
#155 = ORIENTED_EDGE ( 'NONE', *, *, #223, .T. ) ;
#156 = CARTESIAN_POINT ( 'NONE',  ( 3.049908674003516954E-15, 2.399999999999999467, 0.8735285622388785365 ) ) ;
#157 = EDGE_LOOP ( 'NONE', ( #172 ) ) ;
#158 = CIRCLE ( 'NONE', #199, 3.200000000000001510 ) ;
#159 = CC_DESIGN_PERSON_AND_ORGANIZATION_ASSIGNMENT ( #63, #67, ( #34 ) ) ;
#160 = CARTESIAN_POINT ( 'NONE',  ( 2.730338406975330410E-13, 3.999999999999992450, 78.19999999999998863 ) ) ;
#161 = CC_DESIGN_DATE_AND_TIME_ASSIGNMENT ( #165, #208, ( #5 ) ) ;
#162 = CIRCLE ( 'NONE', #176, 4.000000000000001776 ) ;
#163 = CALENDAR_DATE ( 2021, 15, 10 ) ;
#164 = DIRECTION ( 'NONE',  ( 3.491481338843133355E-15, -1.224646799147353207E-16, 1.000000000000000000 ) ) ;
#165 = DATE_AND_TIME ( #163, #200 ) ;
#166 = DIRECTION ( 'NONE',  ( -4.365441207277779675E-30, 1.000000000000000000, -1.228762462150251046E-15 ) ) ;
#167 = ORIENTED_EDGE ( 'NONE', *, *, #4, .F. ) ;
#168 = CYLINDRICAL_SURFACE ( 'NONE', #213, 2.999999999999968914 ) ;
#169 = FACE_OUTER_BOUND ( 'NONE', #113, .T. ) ;
#170 = CC_DESIGN_APPROVAL ( #112, ( #179 ) ) ;
#171 = CARTESIAN_POINT ( 'NONE',  ( 0.0000000000000000000, 0.0000000000000000000, 0.0000000000000000000 ) ) ;
#172 = ORIENTED_EDGE ( 'NONE', *, *, #250, .T. ) ;
#173 = APPLICATION_PROTOCOL_DEFINITION ( 'international standard', 'config_control_design', 1994, #124 ) ;
#174 = EDGE_LOOP ( 'NONE', ( #238 ) ) ;
#175 = ADVANCED_FACE ( 'NONE', ( #152, #111 ), #168, .T. ) ;
#176 = AXIS2_PLACEMENT_3D ( 'NONE', #6, #193, #54 ) ;
#177 =( LENGTH_UNIT ( ) NAMED_UNIT ( * ) SI_UNIT ( .MILLI., .METRE. ) );
#178 = DESIGN_CONTEXT ( 'detailed design', #180, 'design' ) ;
#179 = PRODUCT_DEFINITION_FORMATION_WITH_SPECIFIED_SOURCE ( 'ANY', '', #117, .NOT_KNOWN. ) ;
#180 = APPLICATION_CONTEXT ( 'configuration controlled 3d designs of mechanical parts and assemblies' ) ;
#181 = AXIS2_PLACEMENT_3D ( 'NONE', #171, #236, #31 ) ;
#182 = COORDINATED_UNIVERSAL_TIME_OFFSET ( 1, 0, .AHEAD. ) ;
#183 = CC_DESIGN_PERSON_AND_ORGANIZATION_ASSIGNMENT ( #119, #33, ( #117 ) ) ;
#184 = CARTESIAN_POINT ( 'NONE',  ( 1.396592535537253342E-13, 4.898587196589416655E-14, 40.00000000000000000 ) ) ;
#185 = DIRECTION ( 'NONE',  ( -3.491481338843133355E-15, 1.224646799147353207E-16, -1.000000000000000000 ) ) ;
#186 = AXIS2_PLACEMENT_3D ( 'NONE', #95, #118, #133 ) ;
#187 = EDGE_LOOP ( 'NONE', ( #49 ) ) ;
#188 = MANIFOLD_SOLID_BREP ( 'Corps-Déplacer/Copier1[1]', #226 ) ;
#189 = CARTESIAN_POINT ( 'NONE',  ( 2.758270257686075477E-13, -9.674709713264090904E-15, 79.00000000000000000 ) ) ;
#190 = ORIENTED_EDGE ( 'NONE', *, *, #207, .T. ) ;
#191 = PLANE ( 'NONE',  #114 ) ;
#192 = ORIENTED_EDGE ( 'NONE', *, *, #262, .T. ) ;
#193 = DIRECTION ( 'NONE',  ( -3.491481338843133355E-15, 1.224646799147353207E-16, -1.000000000000000000 ) ) ;
#194 = DIRECTION ( 'NONE',  ( -8.217301096052371192E-30, 1.000000000000000000, -2.312964634635789204E-15 ) ) ;
#195 = ORIENTED_EDGE ( 'NONE', *, *, #83, .T. ) ;
#196 = APPROVAL_ROLE ( '' ) ;
#197 = DATE_AND_TIME ( #141, #143 ) ;
#198 = CC_DESIGN_PERSON_AND_ORGANIZATION_ASSIGNMENT ( #65, #109, ( #5 ) ) ;
#199 = AXIS2_PLACEMENT_3D ( 'NONE', #249, #52, #66 ) ;
#200 = LOCAL_TIME ( 11, 34, 11.00000000000000000, #123 ) ;
#201 = VERTEX_POINT ( 'NONE', #160 ) ;
#202 = VERTEX_POINT ( 'NONE', #57 ) ;
#203 = APPROVAL_PERSON_ORGANIZATION ( #21, #112, #246 ) ;
#204 = ADVANCED_FACE ( 'NONE', ( #227, #127 ), #103, .T. ) ;
#205 = PERSON_AND_ORGANIZATION ( #79, #221 ) ;
#206 = DATE_AND_TIME ( #1, #90 ) ;
#207 = EDGE_CURVE ( 'NONE', #138, #138, #20, .T. ) ;
#208 = DATE_TIME_ROLE ( 'classification_date' ) ;
#209 = DIRECTION ( 'NONE',  ( -4.275831445896958607E-31, -1.000000000000000000, -1.224646799147353207E-16 ) ) ;
#210 = DIRECTION ( 'NONE',  ( 0.0000000000000000000, -1.000000000000000000, 0.0000000000000000000 ) ) ;
#211 = ORIENTED_EDGE ( 'NONE', *, *, #38, .T. ) ;
#212 = FACE_OUTER_BOUND ( 'NONE', #13, .T. ) ;
#213 = AXIS2_PLACEMENT_3D ( 'NONE', #98, #247, #148 ) ;
#214 = FACE_OUTER_BOUND ( 'NONE', #137, .T. ) ;
#215 = ORIENTED_EDGE ( 'NONE', *, *, #223, .F. ) ;
#216 = PLANE ( 'NONE',  #186 ) ;
#217 = ORIENTED_EDGE ( 'NONE', *, *, #250, .F. ) ;
#218 = CIRCLE ( 'NONE', #132, 2.399999999999998579 ) ;
#219 = CARTESIAN_POINT ( 'NONE',  ( 2.758270257686075477E-13, 3.199999999999991740, 79.00000000000000000 ) ) ;
#220 = DIRECTION ( 'NONE',  ( -3.491481338843133355E-15, 1.224646799147353207E-16, -1.000000000000000000 ) ) ;
#221 = ORGANIZATION ( 'UNSPECIFIED', 'UNSPECIFIED', '' ) ;
#222 = DIRECTION ( 'NONE',  ( 4.275831445896958607E-31, 1.000000000000000000, 1.224646799147353207E-16 ) ) ;
#223 = EDGE_CURVE ( 'NONE', #17, #17, #218, .T. ) ;
#224 = APPROVAL_STATUS ( 'not_yet_approved' ) ;
#225 = SECURITY_CLASSIFICATION_LEVEL ( 'unclassified' ) ;
#226 = CLOSED_SHELL ( 'NONE', ( #245, #235, #56, #105, #135, #86 ) ) ;
#227 = FACE_BOUND ( 'NONE', #96, .T. ) ;
#228 = FACE_BOUND ( 'NONE', #256, .T. ) ;
#229 = ORIENTED_EDGE ( 'NONE', *, *, #262, .F. ) ;
#230 = DIRECTION ( 'NONE',  ( -3.491481338843133355E-15, 1.224646799147353207E-16, -1.000000000000000000 ) ) ;
#231 = ORIENTED_EDGE ( 'NONE', *, *, #153, .F. ) ;
#232 = CARTESIAN_POINT ( 'NONE',  ( 3.049908674003527209E-15, 1.069763957709636364E-15, 0.8735285622388814231 ) ) ;
#233 = AXIS2_PLACEMENT_3D ( 'NONE', #189, #9, #55 ) ;
#234 = DIRECTION ( 'NONE',  ( 3.491481338843133355E-15, 1.224646799147354045E-15, 1.000000000000000000 ) ) ;
#235 = ADVANCED_FACE ( 'NONE', ( #26, #115 ), #51, .T. ) ;
#236 = DIRECTION ( 'NONE',  ( 0.0000000000000000000, 0.0000000000000000000, 1.000000000000000000 ) ) ;
#237 = APPROVAL_STATUS ( 'not_yet_approved' ) ;
#238 = ORIENTED_EDGE ( 'NONE', *, *, #4, .T. ) ;
#239 = CARTESIAN_POINT ( 'NONE',  ( 1.631640833204962999E-13, -3.999999999999942712, 46.73205080756898866 ) ) ;
#240 = VERTEX_POINT ( 'NONE', #104 ) ;
#241 = CC_DESIGN_PERSON_AND_ORGANIZATION_ASSIGNMENT ( #64, #84, ( #179 ) ) ;
#242 = AXIS2_PLACEMENT_3D ( 'NONE', #71, #91, #166 ) ;
#243 = COORDINATED_UNIVERSAL_TIME_OFFSET ( 1, 0, .AHEAD. ) ;
#244 = CLOSED_SHELL ( 'NONE', ( #10, #14, #204, #175 ) ) ;
#245 = ADVANCED_FACE ( 'NONE', ( #12, #15 ), #100, .T. ) ;
#246 = APPROVAL_ROLE ( '' ) ;
#247 = DIRECTION ( 'NONE',  ( -3.491481338843133355E-15, -1.224646799147354045E-15, -1.000000000000000000 ) ) ;
#248 = AXIS2_PLACEMENT_3D ( 'NONE', #102, #255, #39 ) ;
#249 = CARTESIAN_POINT ( 'NONE',  ( 2.758270257686075477E-13, -9.674709713264090904E-15, 79.00000000000000000 ) ) ;
#250 = EDGE_CURVE ( 'NONE', #240, #240, #108, .T. ) ;
#251 = DIRECTION ( 'NONE',  ( 5.478200730701547397E-30, -1.000000000000000000, 1.541976423090516735E-15 ) ) ;
#252 = DIRECTION ( 'NONE',  ( 4.275831445896958607E-31, 1.000000000000000000, 1.224646799147353207E-16 ) ) ;
#253 = CYLINDRICAL_SURFACE ( 'NONE', #242, 2.999999999999968914 ) ;
#254 = APPROVAL ( #237, 'UNSPECIFIED' ) ;
#255 = DIRECTION ( 'NONE',  ( 3.491481338843133355E-15, 1.224646799147354045E-15, 1.000000000000000000 ) ) ;
#256 = EDGE_LOOP ( 'NONE', ( #217 ) ) ;
#257 = APPROVAL_DATE_TIME ( #197, #254 ) ;
#258 = APPLICATION_PROTOCOL_DEFINITION ( 'international standard', 'config_control_design', 1994, #180 ) ;
#259 = AXIS2_PLACEMENT_3D ( 'NONE', #184, #3, #69 ) ;
#260 = PRODUCT_RELATED_PRODUCT_CATEGORY ( 'detail', '', ( #117 ) ) ;
#261 = CARTESIAN_POINT ( 'NONE',  ( 4.163780809003275664E-15, 2.999999999999999556, 1.192554221235764045 ) ) ;
#262 = EDGE_CURVE ( 'NONE', #120, #120, #97, .T. ) ;
#263 = DATE_AND_TIME ( #2, #22 ) ;
ENDSEC;
END-ISO-10303-21;
