ISO-10303-21;
HEADER;
FILE_DESCRIPTION (( 'STEP AP203' ),
    '1' );
FILE_NAME ('62870.step',
    '2021-10-15T09:34:11',
    ( '' ),
    ( '' ),
    'SwSTEP 2.0',
    'SolidWorks 2019',
    '' );
FILE_SCHEMA (( 'CONFIG_CONTROL_DESIGN' ));
ENDSEC;

DATA;
#1 = SECURITY_CLASSIFICATION ( '', '', #89 ) ;
#2 = CC_DESIGN_DATE_AND_TIME_ASSIGNMENT ( #48, #66, ( #203 ) ) ;
#3 = COORDINATED_UNIVERSAL_TIME_OFFSET ( 1, 0, .AHEAD. ) ;
#4 = ADVANCED_FACE ( 'NONE', ( #133, #253 ), #9, .T. ) ;
#5 = CIRCLE ( 'NONE', #40, 2.899999999999975930 ) ;
#6 = DATE_AND_TIME ( #183, #143 ) ;
#7 = COORDINATED_UNIVERSAL_TIME_OFFSET ( 1, 0, .AHEAD. ) ;
#8 = PERSON_AND_ORGANIZATION_ROLE ( 'design_owner' ) ;
#9 = CONICAL_SURFACE ( 'NONE', #109, 2.300000000000000266, 0.7853981633974437271 ) ;
#10 = FACE_BOUND ( 'NONE', #76, .T. ) ;
#11 = APPLICATION_CONTEXT ( 'configuration controlled 3d designs of mechanical parts and assemblies' ) ;
#12 = ORIENTED_EDGE ( 'NONE', *, *, #210, .T. ) ;
#13 = CARTESIAN_POINT ( 'NONE',  ( 1.193151078279223379E-13, 4.185010621875513592E-14, 34.17320508075697916 ) ) ;
#14 = APPROVAL_PERSON_ORGANIZATION ( #208, #93, #245 ) ;
#15 = DIRECTION ( 'NONE',  ( -4.250328153130454558E-30, 1.000000000000000000, -1.196361017915040226E-15 ) ) ;
#16 = DIRECTION ( 'NONE',  ( -4.275831445896958607E-31, -1.000000000000000000, -1.224646799147353207E-16 ) ) ;
#17 = PRODUCT_RELATED_PRODUCT_CATEGORY ( 'detail', '', ( #165 ) ) ;
#18 = DESIGN_CONTEXT ( 'detailed design', #11, 'design' ) ;
#19 = CARTESIAN_POINT ( 'NONE',  ( 2.279937314264566018E-13, 2.999999999999992450, 65.29999999999999716 ) ) ;
#20 = CC_DESIGN_APPROVAL ( #36, ( #256 ) ) ;
#21 = DIRECTION ( 'NONE',  ( -3.491481338843133355E-15, -1.224646799147354045E-15, -1.000000000000000000 ) ) ;
#22 = CC_DESIGN_PERSON_AND_ORGANIZATION_ASSIGNMENT ( #188, #209, ( #256 ) ) ;
#23 = CARTESIAN_POINT ( 'NONE',  ( 1.193151078279223631E-13, -2.999999999999956479, 34.17320508075697916 ) ) ;
#24 = CIRCLE ( 'NONE', #229, 2.300000000000000266 ) ;
#25 = COORDINATED_UNIVERSAL_TIME_OFFSET ( 1, 0, .AHEAD. ) ;
#26 = APPROVAL_STATUS ( 'not_yet_approved' ) ;
#27 = COORDINATED_UNIVERSAL_TIME_OFFSET ( 1, 0, .AHEAD. ) ;
#28 = AXIS2_PLACEMENT_3D ( 'NONE', #140, #144, #181 ) ;
#29 = COORDINATED_UNIVERSAL_TIME_OFFSET ( 1, 0, .AHEAD. ) ;
#30 = CARTESIAN_POINT ( 'NONE',  ( 2.304377683636468267E-13, -8.082668874372532400E-15, 66.00000000000000000 ) ) ;
#31 = FACE_OUTER_BOUND ( 'NONE', #243, .T. ) ;
#32 = DIRECTION ( 'NONE',  ( -3.491481338843133355E-15, 1.224646799147353207E-16, -1.000000000000000000 ) ) ;
#33 = EDGE_LOOP ( 'NONE', ( #151 ) ) ;
#34 = FACE_OUTER_BOUND ( 'NONE', #213, .T. ) ;
#35 = AXIS2_PLACEMENT_3D ( 'NONE', #37, #233, #16 ) ;
#36 = APPROVAL ( #149, 'UNSPECIFIED' ) ;
#37 = CARTESIAN_POINT ( 'NONE',  ( 1.047444401652940007E-13, 2.249639673992777927E-32, 30.00000000000000000 ) ) ;
#38 = DIRECTION ( 'NONE',  ( -3.491481338843133355E-15, -1.224646799147354045E-15, -1.000000000000000000 ) ) ;
#39 = FACE_OUTER_BOUND ( 'NONE', #221, .T. ) ;
#40 = AXIS2_PLACEMENT_3D ( 'NONE', #173, #32, #156 ) ;
#41 = CARTESIAN_POINT ( 'NONE',  ( 1.047444401652940007E-13, -2.899999999999939071, 30.00000000000000000 ) ) ;
#42 = VERTEX_POINT ( 'NONE', #163 ) ;
#43 = CARTESIAN_POINT ( 'NONE',  ( 2.954599027940905508E-15, 2.324999999999999734, 0.8462307946689132665 ) ) ;
#44 = AXIS2_PLACEMENT_3D ( 'NONE', #158, #232, #137 ) ;
#45 = APPROVAL_PERSON_ORGANIZATION ( #106, #36, #185 ) ;
#46 = SHAPE_DEFINITION_REPRESENTATION ( #196, #107 ) ;
#47 = EDGE_LOOP ( 'NONE', ( #211 ) ) ;
#48 = DATE_AND_TIME ( #250, #130 ) ;
#49 = DIRECTION ( 'NONE',  ( -3.491481338843133355E-15, 1.224646799147353207E-16, -1.000000000000000000 ) ) ;
#50 = EDGE_CURVE ( 'NONE', #217, #217, #134, .T. ) ;
#51 = EDGE_LOOP ( 'NONE', ( #95 ) ) ;
#52 =( GEOMETRIC_REPRESENTATION_CONTEXT ( 3 ) GLOBAL_UNCERTAINTY_ASSIGNED_CONTEXT ( ( #259 ) ) GLOBAL_UNIT_ASSIGNED_CONTEXT ( ( #164, #142, #260 ) ) REPRESENTATION_CONTEXT ( 'NONE', 'WORKASPACE' ) );
#53 = EDGE_LOOP ( 'NONE', ( #120 ) ) ;
#54 = DIRECTION ( 'NONE',  ( 0.0000000000000000000, 1.000000000000000000, 0.0000000000000000000 ) ) ;
#55 = FACE_OUTER_BOUND ( 'NONE', #58, .T. ) ;
#56 = DIRECTION ( 'NONE',  ( 4.250328153130454558E-30, -1.000000000000000000, 1.196361017915040226E-15 ) ) ;
#57 = CLOSED_SHELL ( 'NONE', ( #241, #4, #178, #112, #227, #170 ) ) ;
#58 = EDGE_LOOP ( 'NONE', ( #135 ) ) ;
#59 = CARTESIAN_POINT ( 'NONE',  ( 0.0000000000000000000, 0.0000000000000000000, 0.0000000000000000000 ) ) ;
#60 = FACE_OUTER_BOUND ( 'NONE', #171, .T. ) ;
#61 = DIRECTION ( 'NONE',  ( -3.491481338843133355E-15, 1.224646799147353207E-16, -1.000000000000000000 ) ) ;
#62 = MANIFOLD_SOLID_BREP ( 'Corps-Déplacer/Copier1[1]', #57 ) ;
#63 = FACE_OUTER_BOUND ( 'NONE', #53, .T. ) ;
#64 = EDGE_CURVE ( 'NONE', #180, #180, #261, .T. ) ;
#65 = CONICAL_SURFACE ( 'NONE', #73, 2.324999999999998845, 1.221730476396032161 ) ;
#66 = DATE_TIME_ROLE ( 'creation_date' ) ;
#67 = APPROVAL_STATUS ( 'not_yet_approved' ) ;
#68 = ADVANCED_FACE ( 'NONE', ( #175 ), #75, .T. ) ;
#69 = AXIS2_PLACEMENT_3D ( 'NONE', #201, #21, #77 ) ;
#70 = DATE_AND_TIME ( #169, #200 ) ;
#71 = CARTESIAN_POINT ( 'NONE',  ( 2.304377683636468267E-13, 1.724723750061123933E-32, 66.00000000000000000 ) ) ;
#72 = DIRECTION ( 'NONE',  ( 8.217301096052212846E-30, -1.000000000000000000, 2.312964634635744633E-15 ) ) ;
#73 = AXIS2_PLACEMENT_3D ( 'NONE', #119, #197, #236 ) ;
#74 = CARTESIAN_POINT ( 'NONE',  ( 2.279937314264566018E-13, -7.996943598432214956E-15, 65.29999999999999716 ) ) ;
#75 = PLANE ( 'NONE',  #83 ) ;
#76 = EDGE_LOOP ( 'NONE', ( #131 ) ) ;
#77 = DIRECTION ( 'NONE',  ( -4.307456219704787387E-30, 1.000000000000000000, -1.212441139123575364E-15 ) ) ;
#78 = CIRCLE ( 'NONE', #205, 3.000000000000000000 ) ;
#79 = FACE_BOUND ( 'NONE', #51, .T. ) ;
#80 = APPROVAL ( #67, 'UNSPECIFIED' ) ;
#81 = CARTESIAN_POINT ( 'NONE',  ( 1.047444401652940007E-13, -2.899999999999939071, 30.00000000000000000 ) ) ;
#82 = CYLINDRICAL_SURFACE ( 'NONE', #176, 2.999999999999997780 ) ;
#83 = AXIS2_PLACEMENT_3D ( 'NONE', #214, #161, #192 ) ;
#84 = CARTESIAN_POINT ( 'NONE',  ( 0.0000000000000000000, 0.0000000000000000000, 0.0000000000000000000 ) ) ;
#85 = EDGE_CURVE ( 'NONE', #204, #204, #78, .T. ) ;
#86 = CALENDAR_DATE ( 2021, 15, 10 ) ;
#87 = CC_DESIGN_APPROVAL ( #93, ( #1 ) ) ;
#88 = PERSON_AND_ORGANIZATION ( #224, #202 ) ;
#89 = SECURITY_CLASSIFICATION_LEVEL ( 'unclassified' ) ;
#90 = DATE_TIME_ROLE ( 'classification_date' ) ;
#91 = AXIS2_PLACEMENT_3D ( 'NONE', #122, #38, #240 ) ;
#92 = EDGE_LOOP ( 'NONE', ( #159 ) ) ;
#93 = APPROVAL ( #26, 'UNSPECIFIED' ) ;
#94 = EDGE_LOOP ( 'NONE', ( #255 ) ) ;
#95 = ORIENTED_EDGE ( 'NONE', *, *, #64, .F. ) ;
#96 = DIRECTION ( 'NONE',  ( -3.491481338843133355E-15, 1.224646799147353207E-16, -1.000000000000000000 ) ) ;
#97 = CIRCLE ( 'NONE', #138, 2.999999999999997780 ) ;
#98 = FACE_OUTER_BOUND ( 'NONE', #33, .T. ) ;
#99 = DIRECTION ( 'NONE',  ( -3.491481338843133355E-15, -1.224646799147354045E-15, -1.000000000000000000 ) ) ;
#100 = CARTESIAN_POINT ( 'NONE',  ( 4.022059823982340003E-15, 2.899999999999999467, 1.151963717874261439 ) ) ;
#101 = CARTESIAN_POINT ( 'NONE',  ( 1.187103655206665341E-13, 2.899999999999995470, 34.00000000000000000 ) ) ;
#102 = DIRECTION ( 'NONE',  ( 7.043400939473416581E-30, -1.000000000000000000, 1.982541115402092523E-15 ) ) ;
#103 = DIRECTION ( 'NONE',  ( 0.0000000000000000000, 0.0000000000000000000, 1.000000000000000000 ) ) ;
#104 = CLOSED_SHELL ( 'NONE', ( #68, #172, #125, #222 ) ) ;
#105 = PERSON_AND_ORGANIZATION ( #224, #202 ) ;
#106 = PERSON_AND_ORGANIZATION ( #224, #202 ) ;
#107 = ADVANCED_BREP_SHAPE_REPRESENTATION ( '62870', ( #62, #155, #110 ), #52 ) ;
#108 = DATE_AND_TIME ( #86, #167 ) ;
#109 = AXIS2_PLACEMENT_3D ( 'NONE', #30, #215, #257 ) ;
#110 = AXIS2_PLACEMENT_3D ( 'NONE', #84, #103, #244 ) ;
#111 = APPROVAL_ROLE ( '' ) ;
#112 = ADVANCED_FACE ( 'NONE', ( #34, #174 ), #154, .T. ) ;
#113 = DIRECTION ( 'NONE',  ( 3.491481338843133355E-15, 1.224646799147354045E-15, 1.000000000000000000 ) ) ;
#114 = DIRECTION ( 'NONE',  ( -3.491481338843133355E-15, 1.224646799147353207E-16, -1.000000000000000000 ) ) ;
#115 = ORIENTED_EDGE ( 'NONE', *, *, #148, .F. ) ;
#116 = EDGE_CURVE ( 'NONE', #141, #141, #97, .T. ) ;
#117 = CARTESIAN_POINT ( 'NONE',  ( 4.022059823982351835E-15, 1.410748679828604130E-15, 1.151963717874264992 ) ) ;
#118 = ORIENTED_EDGE ( 'NONE', *, *, #237, .F. ) ;
#119 = CARTESIAN_POINT ( 'NONE',  ( 2.954599027940915764E-15, 1.036333834031209901E-15, 0.8462307946689160421 ) ) ;
#120 = ORIENTED_EDGE ( 'NONE', *, *, #116, .F. ) ;
#121 = DIRECTION ( 'NONE',  ( 4.275831445896958607E-31, 1.000000000000000000, 1.224646799147353207E-16 ) ) ;
#122 = CARTESIAN_POINT ( 'NONE',  ( -3.491481338843130200E-15, -1.224646799147353059E-15, -0.9999999999999991118 ) ) ;
#123 = CONICAL_SURFACE ( 'NONE', #166, 2.899999999999998135, 1.082104136236485603 ) ;
#124 = VERTEX_POINT ( 'NONE', #41 ) ;
#125 = ADVANCED_FACE ( 'NONE', ( #10, #98 ), #123, .T. ) ;
#126 = MECHANICAL_CONTEXT ( 'NONE', #184, 'mechanical' ) ;
#127 = AXIS2_PLACEMENT_3D ( 'NONE', #262, #223, #102 ) ;
#128 = PERSON_AND_ORGANIZATION_ROLE ( 'classification_officer' ) ;
#129 = AXIS2_PLACEMENT_3D ( 'NONE', #194, #136, #193 ) ;
#130 = LOCAL_TIME ( 11, 34, 11.00000000000000000, #29 ) ;
#131 = ORIENTED_EDGE ( 'NONE', *, *, #210, .F. ) ;
#132 = PERSON_AND_ORGANIZATION ( #224, #202 ) ;
#133 = FACE_OUTER_BOUND ( 'NONE', #254, .T. ) ;
#134 = CIRCLE ( 'NONE', #147, 2.899999999999998135 ) ;
#135 = ORIENTED_EDGE ( 'NONE', *, *, #157, .F. ) ;
#136 = DIRECTION ( 'NONE',  ( -3.491481338843133355E-15, -1.224646799147354045E-15, -1.000000000000000000 ) ) ;
#137 = DIRECTION ( 'NONE',  ( -8.500656306261038035E-30, 1.000000000000000000, -2.392722035830116739E-15 ) ) ;
#138 = AXIS2_PLACEMENT_3D ( 'NONE', #13, #113, #72 ) ;
#139 = FACE_OUTER_BOUND ( 'NONE', #47, .T. ) ;
#140 = CARTESIAN_POINT ( 'NONE',  ( 1.047444401652940007E-13, 3.673940397442062649E-14, 30.00000000000000000 ) ) ;
#141 = VERTEX_POINT ( 'NONE', #23 ) ;
#142 =( NAMED_UNIT ( * ) PLANE_ANGLE_UNIT ( ) SI_UNIT ( $, .RADIAN. ) );
#143 = LOCAL_TIME ( 11, 34, 11.00000000000000000, #25 ) ;
#144 = DIRECTION ( 'NONE',  ( -3.491481338843133355E-15, 1.224646799147353207E-16, -1.000000000000000000 ) ) ;
#145 = ORIENTED_EDGE ( 'NONE', *, *, #64, .T. ) ;
#146 = CC_DESIGN_PERSON_AND_ORGANIZATION_ASSIGNMENT ( #105, #8, ( #165 ) ) ;
#147 = AXIS2_PLACEMENT_3D ( 'NONE', #238, #99, #15 ) ;
#148 = EDGE_CURVE ( 'NONE', #179, #179, #5, .T. ) ;
#149 = APPROVAL_STATUS ( 'not_yet_approved' ) ;
#150 = CALENDAR_DATE ( 2021, 15, 10 ) ;
#151 = ORIENTED_EDGE ( 'NONE', *, *, #50, .T. ) ;
#152 = AXIS2_PLACEMENT_3D ( 'NONE', #71, #49, #121 ) ;
#153 = APPROVAL_DATE_TIME ( #190, #80 ) ;
#154 = CYLINDRICAL_SURFACE ( 'NONE', #129, 2.899999999999975930 ) ;
#155 = MANIFOLD_SOLID_BREP ( 'Corps-Déplacer/Copier1[2]', #104 ) ;
#156 = DIRECTION ( 'NONE',  ( 0.0000000000000000000, -1.000000000000000000, 0.0000000000000000000 ) ) ;
#157 = EDGE_CURVE ( 'NONE', #42, #42, #24, .T. ) ;
#158 = CARTESIAN_POINT ( 'NONE',  ( 1.187103655206665593E-13, 4.163799117101005135E-14, 34.00000000000000711 ) ) ;
#159 = ORIENTED_EDGE ( 'NONE', *, *, #116, .T. ) ;
#160 = DIRECTION ( 'NONE',  ( 0.0000000000000000000, 1.000000000000000000, 0.0000000000000000000 ) ) ;
#161 = DIRECTION ( 'NONE',  ( 3.491481338843133355E-15, -1.224646799147353207E-16, 1.000000000000000000 ) ) ;
#162 = FACE_OUTER_BOUND ( 'NONE', #249, .T. ) ;
#163 = CARTESIAN_POINT ( 'NONE',  ( 2.304377683636468267E-13, 2.299999999999992273, 66.00000000000000000 ) ) ;
#164 =( LENGTH_UNIT ( ) NAMED_UNIT ( * ) SI_UNIT ( .MILLI., .METRE. ) );
#165 = PRODUCT ( '62870', '62870', '', ( #126 ) ) ;
#166 = AXIS2_PLACEMENT_3D ( 'NONE', #117, #195, #56 ) ;
#167 = LOCAL_TIME ( 11, 34, 11.00000000000000000, #3 ) ;
#168 = APPLICATION_PROTOCOL_DEFINITION ( 'international standard', 'config_control_design', 1994, #184 ) ;
#169 = CALENDAR_DATE ( 2021, 15, 10 ) ;
#170 = ADVANCED_FACE ( 'NONE', ( #139 ), #216, .F. ) ;
#171 = EDGE_LOOP ( 'NONE', ( #258 ) ) ;
#172 = ADVANCED_FACE ( 'NONE', ( #31 ), #65, .T. ) ;
#173 = CARTESIAN_POINT ( 'NONE',  ( 1.047444401652940007E-13, 3.673940397442062649E-14, 30.00000000000000000 ) ) ;
#174 = FACE_OUTER_BOUND ( 'NONE', #198, .T. ) ;
#175 = FACE_OUTER_BOUND ( 'NONE', #235, .T. ) ;
#176 = AXIS2_PLACEMENT_3D ( 'NONE', #59, #61, #219 ) ;
#177 = CARTESIAN_POINT ( 'NONE',  ( 2.304377683636468267E-13, -8.082668874372532400E-15, 66.00000000000000000 ) ) ;
#178 = ADVANCED_FACE ( 'NONE', ( #55 ), #252, .F. ) ;
#179 = VERTEX_POINT ( 'NONE', #81 ) ;
#180 = VERTEX_POINT ( 'NONE', #101 ) ;
#181 = DIRECTION ( 'NONE',  ( 0.0000000000000000000, -1.000000000000000000, 0.0000000000000000000 ) ) ;
#182 = CIRCLE ( 'NONE', #69, 2.324999999999998845 ) ;
#183 = CALENDAR_DATE ( 2021, 15, 10 ) ;
#184 = APPLICATION_CONTEXT ( 'configuration controlled 3d designs of mechanical parts and assemblies' ) ;
#185 = APPROVAL_ROLE ( '' ) ;
#186 = APPROVAL_DATE_TIME ( #108, #93 ) ;
#187 = LOCAL_TIME ( 11, 34, 11.00000000000000000, #27 ) ;
#188 = PERSON_AND_ORGANIZATION ( #224, #202 ) ;
#189 = CC_DESIGN_PERSON_AND_ORGANIZATION_ASSIGNMENT ( #88, #128, ( #1 ) ) ;
#190 = DATE_AND_TIME ( #150, #187 ) ;
#191 = CIRCLE ( 'NONE', #28, 2.899999999999975930 ) ;
#192 = DIRECTION ( 'NONE',  ( -4.275831445896958607E-31, -1.000000000000000000, -1.224646799147353207E-16 ) ) ;
#193 = DIRECTION ( 'NONE',  ( -4.250328153130486788E-30, 1.000000000000000000, -1.196361017915049297E-15 ) ) ;
#194 = CARTESIAN_POINT ( 'NONE',  ( -3.491481338843130200E-15, -1.224646799147353059E-15, -0.9999999999999991118 ) ) ;
#195 = DIRECTION ( 'NONE',  ( 3.491481338843133355E-15, 1.224646799147354045E-15, 1.000000000000000000 ) ) ;
#196 = PRODUCT_DEFINITION_SHAPE ( 'NONE', 'NONE',  #203 ) ;
#197 = DIRECTION ( 'NONE',  ( 3.491481338843133355E-15, 1.224646799147354045E-15, 1.000000000000000000 ) ) ;
#198 = EDGE_LOOP ( 'NONE', ( #115 ) ) ;
#199 = CYLINDRICAL_SURFACE ( 'NONE', #91, 2.899999999999975930 ) ;
#200 = LOCAL_TIME ( 11, 34, 11.00000000000000000, #7 ) ;
#201 = CARTESIAN_POINT ( 'NONE',  ( 2.954599027940915764E-15, 1.036333834031209901E-15, 0.8462307946689160421 ) ) ;
#202 = ORGANIZATION ( 'UNSPECIFIED', 'UNSPECIFIED', '' ) ;
#203 = PRODUCT_DEFINITION ( 'UNKNOWN', '', #256, #18 ) ;
#204 = VERTEX_POINT ( 'NONE', #19 ) ;
#205 = AXIS2_PLACEMENT_3D ( 'NONE', #74, #96, #54 ) ;
#206 = ORIENTED_EDGE ( 'NONE', *, *, #85, .F. ) ;
#207 = PERSON_AND_ORGANIZATION_ROLE ( 'creator' ) ;
#208 = PERSON_AND_ORGANIZATION ( #224, #202 ) ;
#209 = PERSON_AND_ORGANIZATION_ROLE ( 'design_supplier' ) ;
#210 = EDGE_CURVE ( 'NONE', #242, #242, #182, .T. ) ;
#211 = ORIENTED_EDGE ( 'NONE', *, *, #148, .T. ) ;
#212 = APPROVAL_PERSON_ORGANIZATION ( #226, #80, #111 ) ;
#213 = EDGE_LOOP ( 'NONE', ( #145 ) ) ;
#214 = CARTESIAN_POINT ( 'NONE',  ( 1.047444401652940007E-13, 2.249639673992777927E-32, 30.00000000000000000 ) ) ;
#215 = DIRECTION ( 'NONE',  ( -3.491481338843133355E-15, 1.224646799147353207E-16, -1.000000000000000000 ) ) ;
#216 = PLANE ( 'NONE',  #35 ) ;
#217 = VERTEX_POINT ( 'NONE', #100 ) ;
#218 = CC_DESIGN_PERSON_AND_ORGANIZATION_ASSIGNMENT ( #225, #231, ( #203 ) ) ;
#219 = DIRECTION ( 'NONE',  ( 4.275831445896958607E-31, 1.000000000000000000, 1.224646799147353454E-16 ) ) ;
#220 = ORIENTED_EDGE ( 'NONE', *, *, #85, .T. ) ;
#221 = EDGE_LOOP ( 'NONE', ( #220 ) ) ;
#222 = ADVANCED_FACE ( 'NONE', ( #60, #162 ), #199, .T. ) ;
#223 = DIRECTION ( 'NONE',  ( 3.491481338843133355E-15, 1.224646799147354045E-15, 1.000000000000000000 ) ) ;
#224 = PERSON ( 'UNSPECIFIED', 'UNSPECIFIED', 'UNSPECIFIED', ('UNSPECIFIED'), ('UNSPECIFIED'), ('UNSPECIFIED') ) ;
#225 = PERSON_AND_ORGANIZATION ( #224, #202 ) ;
#226 = PERSON_AND_ORGANIZATION ( #224, #202 ) ;
#227 = ADVANCED_FACE ( 'NONE', ( #79, #63 ), #239, .T. ) ;
#228 = APPROVAL_DATE_TIME ( #70, #36 ) ;
#229 = AXIS2_PLACEMENT_3D ( 'NONE', #177, #114, #160 ) ;
#230 = CC_DESIGN_SECURITY_CLASSIFICATION ( #1, ( #256 ) ) ;
#231 = PERSON_AND_ORGANIZATION_ROLE ( 'creator' ) ;
#232 = DIRECTION ( 'NONE',  ( -3.491481338843133355E-15, -1.224646799147354045E-15, -1.000000000000000000 ) ) ;
#233 = DIRECTION ( 'NONE',  ( 3.491481338843133355E-15, -1.224646799147353207E-16, 1.000000000000000000 ) ) ;
#234 = ORIENTED_EDGE ( 'NONE', *, *, #50, .F. ) ;
#235 = EDGE_LOOP ( 'NONE', ( #118 ) ) ;
#236 = DIRECTION ( 'NONE',  ( 4.307456219704787387E-30, -1.000000000000000000, 1.212441139123575364E-15 ) ) ;
#237 = EDGE_CURVE ( 'NONE', #124, #124, #191, .T. ) ;
#238 = CARTESIAN_POINT ( 'NONE',  ( 4.022059823982351835E-15, 1.410748679828604130E-15, 1.151963717874264992 ) ) ;
#239 = CONICAL_SURFACE ( 'NONE', #127, 3.499999999999951594, 0.5235987755982973724 ) ;
#240 = DIRECTION ( 'NONE',  ( -4.250328153130486788E-30, 1.000000000000000000, -1.196361017915049297E-15 ) ) ;
#241 = ADVANCED_FACE ( 'NONE', ( #263, #39 ), #82, .T. ) ;
#242 = VERTEX_POINT ( 'NONE', #43 ) ;
#243 = EDGE_LOOP ( 'NONE', ( #12 ) ) ;
#244 = DIRECTION ( 'NONE',  ( 1.000000000000000000, 0.0000000000000000000, 0.0000000000000000000 ) ) ;
#245 = APPROVAL_ROLE ( '' ) ;
#246 = CC_DESIGN_APPROVAL ( #80, ( #203 ) ) ;
#247 = CC_DESIGN_DATE_AND_TIME_ASSIGNMENT ( #6, #90, ( #1 ) ) ;
#248 = APPLICATION_PROTOCOL_DEFINITION ( 'international standard', 'config_control_design', 1994, #11 ) ;
#249 = EDGE_LOOP ( 'NONE', ( #234 ) ) ;
#250 = CALENDAR_DATE ( 2021, 15, 10 ) ;
#251 = CC_DESIGN_PERSON_AND_ORGANIZATION_ASSIGNMENT ( #132, #207, ( #256 ) ) ;
#252 = PLANE ( 'NONE',  #152 ) ;
#253 = FACE_BOUND ( 'NONE', #94, .T. ) ;
#254 = EDGE_LOOP ( 'NONE', ( #206 ) ) ;
#255 = ORIENTED_EDGE ( 'NONE', *, *, #157, .T. ) ;
#256 = PRODUCT_DEFINITION_FORMATION_WITH_SPECIFIED_SOURCE ( 'ANY', '', #165, .NOT_KNOWN. ) ;
#257 = DIRECTION ( 'NONE',  ( 0.0000000000000000000, 1.000000000000000000, 0.0000000000000000000 ) ) ;
#258 = ORIENTED_EDGE ( 'NONE', *, *, #237, .T. ) ;
#259 = UNCERTAINTY_MEASURE_WITH_UNIT (LENGTH_MEASURE( 1.000000000000000082E-05 ), #164, 'distance_accuracy_value', 'NONE');
#260 =( NAMED_UNIT ( * ) SI_UNIT ( $, .STERADIAN. ) SOLID_ANGLE_UNIT ( ) );
#261 = CIRCLE ( 'NONE', #44, 2.899999999999953726 ) ;
#262 = CARTESIAN_POINT ( 'NONE',  ( 1.223388193641995140E-13, 4.291068145747994665E-14, 35.03923048454133493 ) ) ;
#263 = FACE_OUTER_BOUND ( 'NONE', #92, .T. ) ;
ENDSEC;
END-ISO-10303-21;
