ISO-10303-21;
HEADER;
FILE_DESCRIPTION (( 'STEP AP203' ),
    '1' );
FILE_NAME ('62867.step',
    '2021-10-15T09:34:10',
    ( '' ),
    ( '' ),
    'SwSTEP 2.0',
    'SolidWorks 2019',
    '' );
FILE_SCHEMA (( 'CONFIG_CONTROL_DESIGN' ));
ENDSEC;

DATA;
#1 = PERSON ( 'UNSPECIFIED', 'UNSPECIFIED', 'UNSPECIFIED', ('UNSPECIFIED'), ('UNSPECIFIED'), ('UNSPECIFIED') ) ;
#2 = CARTESIAN_POINT ( 'NONE',  ( 3.816799074919680732E-15, 1.338752900692211029E-15, 1.093174702799453835 ) ) ;
#3 = CARTESIAN_POINT ( 'NONE',  ( 0.0000000000000000000, 0.0000000000000000000, 0.0000000000000000000 ) ) ;
#4 = ADVANCED_FACE ( 'NONE', ( #241, #167 ), #51, .T. ) ;
#5 =( LENGTH_UNIT ( ) NAMED_UNIT ( * ) SI_UNIT ( .MILLI., .METRE. ) );
#6 = APPROVAL_DATE_TIME ( #176, #139 ) ;
#7 = CARTESIAN_POINT ( 'NONE',  ( 2.795749617836557043E-15, 2.199999999999999734, 0.8007345153856385567 ) ) ;
#8 = COORDINATED_UNIVERSAL_TIME_OFFSET ( 1, 0, .AHEAD. ) ;
#9 = ADVANCED_BREP_SHAPE_REPRESENTATION ( '62867', ( #77, #253, #170 ), #136 ) ;
#10 = ORIENTED_EDGE ( 'NONE', *, *, #30, .F. ) ;
#11 = PLANE ( 'NONE',  #106 ) ;
#12 = CC_DESIGN_PERSON_AND_ORGANIZATION_ASSIGNMENT ( #70, #47, ( #23 ) ) ;
#13 = EDGE_LOOP ( 'NONE', ( #182 ) ) ;
#14 = FACE_OUTER_BOUND ( 'NONE', #231, .T. ) ;
#15 = UNCERTAINTY_MEASURE_WITH_UNIT (LENGTH_MEASURE( 1.000000000000000082E-05 ), #5, 'distance_accuracy_value', 'NONE');
#16 = EDGE_LOOP ( 'NONE', ( #32 ) ) ;
#17 = DIRECTION ( 'NONE',  ( 3.491481338843133355E-15, 1.224646799147354045E-15, 1.000000000000000000 ) ) ;
#18 = CIRCLE ( 'NONE', #183, 2.300000000000000266 ) ;
#19 = AXIS2_PLACEMENT_3D ( 'NONE', #161, #121, #142 ) ;
#20 = VERTEX_POINT ( 'NONE', #65 ) ;
#21 = EDGE_CURVE ( 'NONE', #50, #50, #18, .T. ) ;
#22 = FACE_OUTER_BOUND ( 'NONE', #169, .T. ) ;
#23 = PRODUCT_DEFINITION_FORMATION_WITH_SPECIFIED_SOURCE ( 'ANY', '', #88, .NOT_KNOWN. ) ;
#24 = DIRECTION ( 'NONE',  ( 0.0000000000000000000, 1.000000000000000000, 0.0000000000000000000 ) ) ;
#25 = FACE_BOUND ( 'NONE', #16, .T. ) ;
#26 = VERTEX_POINT ( 'NONE', #202 ) ;
#27 = LOCAL_TIME ( 11, 34, 10.00000000000000000, #138 ) ;
#28 = AXIS2_PLACEMENT_3D ( 'NONE', #2, #215, #122 ) ;
#29 = APPROVAL_STATUS ( 'not_yet_approved' ) ;
#30 = EDGE_CURVE ( 'NONE', #230, #230, #158, .T. ) ;
#31 = APPROVAL_PERSON_ORGANIZATION ( #89, #139, #228 ) ;
#32 = ORIENTED_EDGE ( 'NONE', *, *, #21, .T. ) ;
#33 = FACE_OUTER_BOUND ( 'NONE', #145, .T. ) ;
#34 = FACE_OUTER_BOUND ( 'NONE', #237, .T. ) ;
#35 = CIRCLE ( 'NONE', #174, 2.999999999999997780 ) ;
#36 = DATE_AND_TIME ( #207, #179 ) ;
#37 = CARTESIAN_POINT ( 'NONE',  ( 3.816799074919680732E-15, 1.338752900692211029E-15, 1.093174702799453835 ) ) ;
#38 = APPROVAL ( #83, 'UNSPECIFIED' ) ;
#39 = PERSON_AND_ORGANIZATION ( #1, #129 ) ;
#40 = CLOSED_SHELL ( 'NONE', ( #123, #64, #75, #199, #147, #111 ) ) ;
#41 = MECHANICAL_CONTEXT ( 'NONE', #242, 'mechanical' ) ;
#42 =( NAMED_UNIT ( * ) SI_UNIT ( $, .STERADIAN. ) SOLID_ANGLE_UNIT ( ) );
#43 = CALENDAR_DATE ( 2021, 15, 10 ) ;
#44 = CARTESIAN_POINT ( 'NONE',  ( -3.491481338843130200E-15, -1.224646799147353059E-15, -0.9999999999999991118 ) ) ;
#45 = FACE_OUTER_BOUND ( 'NONE', #125, .T. ) ;
#46 = CONICAL_SURFACE ( 'NONE', #54, 3.499999999999951150, 0.5235987755982972613 ) ;
#47 = PERSON_AND_ORGANIZATION_ROLE ( 'design_supplier' ) ;
#48 = CC_DESIGN_APPROVAL ( #139, ( #23 ) ) ;
#49 = APPROVAL_STATUS ( 'not_yet_approved' ) ;
#50 = VERTEX_POINT ( 'NONE', #105 ) ;
#51 = CONICAL_SURFACE ( 'NONE', #59, 2.749999999999998224, 1.082104136236484937 ) ;
#52 = ORIENTED_EDGE ( 'NONE', *, *, #192, .F. ) ;
#53 = ORIENTED_EDGE ( 'NONE', *, *, #221, .T. ) ;
#54 = AXIS2_PLACEMENT_3D ( 'NONE', #262, #189, #208 ) ;
#55 = COORDINATED_UNIVERSAL_TIME_OFFSET ( 1, 0, .AHEAD. ) ;
#56 = LOCAL_TIME ( 11, 34, 10.00000000000000000, #8 ) ;
#57 = CYLINDRICAL_SURFACE ( 'NONE', #164, 2.999999999999997780 ) ;
#58 = CARTESIAN_POINT ( 'NONE',  ( 2.304377683636468267E-13, -8.082668874372532400E-15, 66.00000000000000000 ) ) ;
#59 = AXIS2_PLACEMENT_3D ( 'NONE', #37, #17, #263 ) ;
#60 = ADVANCED_FACE ( 'NONE', ( #61, #229 ), #220, .T. ) ;
#61 = FACE_OUTER_BOUND ( 'NONE', #149, .T. ) ;
#62 = APPLICATION_PROTOCOL_DEFINITION ( 'international standard', 'config_control_design', 1994, #242 ) ;
#63 = CC_DESIGN_SECURITY_CLASSIFICATION ( #76, ( #23 ) ) ;
#64 = ADVANCED_FACE ( 'NONE', ( #133, #25 ), #205, .T. ) ;
#65 = CARTESIAN_POINT ( 'NONE',  ( 1.187103655206665341E-13, 2.749999999999996003, 34.00000000000000000 ) ) ;
#66 = AXIS2_PLACEMENT_3D ( 'NONE', #115, #194, #155 ) ;
#67 = DATE_TIME_ROLE ( 'creation_date' ) ;
#68 = DIRECTION ( 'NONE',  ( -3.491481338843133355E-15, -1.224646799147354045E-15, -1.000000000000000000 ) ) ;
#69 = DIRECTION ( 'NONE',  ( -3.491481338843133355E-15, 1.224646799147353207E-16, -1.000000000000000000 ) ) ;
#70 = PERSON_AND_ORGANIZATION ( #1, #129 ) ;
#71 = CARTESIAN_POINT ( 'NONE',  ( 1.202222212888055513E-13, 4.216827879037259555E-14, 34.43301270189230223 ) ) ;
#72 = CARTESIAN_POINT ( 'NONE',  ( 1.187103655206665341E-13, 4.163799117101004504E-14, 34.00000000000000000 ) ) ;
#73 = EDGE_LOOP ( 'NONE', ( #261 ) ) ;
#74 = AXIS2_PLACEMENT_3D ( 'NONE', #44, #68, #256 ) ;
#75 = ADVANCED_FACE ( 'NONE', ( #100 ), #101, .F. ) ;
#76 = SECURITY_CLASSIFICATION ( '', '', #206 ) ;
#77 = MANIFOLD_SOLID_BREP ( 'Corps-Déplacer/Copier1[1]', #40 ) ;
#78 = ADVANCED_FACE ( 'NONE', ( #22 ), #245, .T. ) ;
#79 = APPROVAL_ROLE ( '' ) ;
#80 = DIRECTION ( 'NONE',  ( -3.491481338843133355E-15, -1.224646799147354045E-15, -1.000000000000000000 ) ) ;
#81 = AXIS2_PLACEMENT_3D ( 'NONE', #72, #143, #233 ) ;
#82 = CC_DESIGN_DATE_AND_TIME_ASSIGNMENT ( #116, #197, ( #76 ) ) ;
#83 = APPROVAL_STATUS ( 'not_yet_approved' ) ;
#84 = LOCAL_TIME ( 11, 34, 10.00000000000000000, #252 ) ;
#85 = CYLINDRICAL_SURFACE ( 'NONE', #74, 2.749999999999976463 ) ;
#86 = VERTEX_POINT ( 'NONE', #102 ) ;
#87 = FACE_OUTER_BOUND ( 'NONE', #188, .T. ) ;
#88 = PRODUCT ( '62867', '62867', '', ( #41 ) ) ;
#89 = PERSON_AND_ORGANIZATION ( #1, #129 ) ;
#90 = CARTESIAN_POINT ( 'NONE',  ( 1.047444401652940007E-13, 3.673940397442062649E-14, 30.00000000000000000 ) ) ;
#91 = DESIGN_CONTEXT ( 'detailed design', #248, 'design' ) ;
#92 = CARTESIAN_POINT ( 'NONE',  ( 1.047444401652940007E-13, 2.249639673992777927E-32, 30.00000000000000000 ) ) ;
#93 = LOCAL_TIME ( 11, 34, 10.00000000000000000, #127 ) ;
#94 = AXIS2_PLACEMENT_3D ( 'NONE', #246, #117, #24 ) ;
#95 = PERSON_AND_ORGANIZATION ( #1, #129 ) ;
#96 = CC_DESIGN_PERSON_AND_ORGANIZATION_ASSIGNMENT ( #181, #175, ( #238 ) ) ;
#97 = PLANE ( 'NONE',  #219 ) ;
#98 = DIRECTION ( 'NONE',  ( -4.275831445896958607E-31, -1.000000000000000000, -1.224646799147353207E-16 ) ) ;
#99 = DIRECTION ( 'NONE',  ( -3.491481338843133355E-15, -1.224646799147354045E-15, -1.000000000000000000 ) ) ;
#100 = FACE_OUTER_BOUND ( 'NONE', #73, .T. ) ;
#101 = PLANE ( 'NONE',  #66 ) ;
#102 = CARTESIAN_POINT ( 'NONE',  ( 2.279937314264566018E-13, 2.999999999999992450, 65.29999999999999716 ) ) ;
#103 = CC_DESIGN_PERSON_AND_ORGANIZATION_ASSIGNMENT ( #95, #165, ( #88 ) ) ;
#104 = DIRECTION ( 'NONE',  ( -3.491481338843133355E-15, 1.224646799147353207E-16, -1.000000000000000000 ) ) ;
#105 = CARTESIAN_POINT ( 'NONE',  ( 2.304377683636468267E-13, 2.299999999999992273, 66.00000000000000000 ) ) ;
#106 = AXIS2_PLACEMENT_3D ( 'NONE', #92, #224, #196 ) ;
#107 = EDGE_LOOP ( 'NONE', ( #166 ) ) ;
#108 = APPROVAL_DATE_TIME ( #36, #247 ) ;
#109 = ORIENTED_EDGE ( 'NONE', *, *, #249, .T. ) ;
#110 = ORIENTED_EDGE ( 'NONE', *, *, #192, .T. ) ;
#111 = ADVANCED_FACE ( 'NONE', ( #45 ), #97, .F. ) ;
#112 = CARTESIAN_POINT ( 'NONE',  ( 2.795749617836566115E-15, 9.806169612338331855E-16, 0.8007345153856413322 ) ) ;
#113 = FACE_BOUND ( 'NONE', #257, .T. ) ;
#114 = CARTESIAN_POINT ( 'NONE',  ( 1.047444401652940007E-13, -2.749999999999939604, 30.00000000000000000 ) ) ;
#115 = CARTESIAN_POINT ( 'NONE',  ( 2.304377683636468267E-13, 1.724723750061123933E-32, 66.00000000000000000 ) ) ;
#116 = DATE_AND_TIME ( #222, #93 ) ;
#117 = DIRECTION ( 'NONE',  ( -3.491481338843133355E-15, 1.224646799147353207E-16, -1.000000000000000000 ) ) ;
#118 = EDGE_CURVE ( 'NONE', #251, #251, #173, .T. ) ;
#119 = CARTESIAN_POINT ( 'NONE',  ( 1.047444401652940007E-13, -2.749999999999939604, 30.00000000000000000 ) ) ;
#120 = DIRECTION ( 'NONE',  ( 8.217301096052212846E-30, -1.000000000000000000, 2.312964634635744633E-15 ) ) ;
#121 = DIRECTION ( 'NONE',  ( -3.491481338843133355E-15, 1.224646799147353207E-16, -1.000000000000000000 ) ) ;
#122 = DIRECTION ( 'NONE',  ( -4.202028969572153373E-30, 1.000000000000000000, -1.261617073437678640E-15 ) ) ;
#123 = ADVANCED_FACE ( 'NONE', ( #14, #151 ), #57, .T. ) ;
#124 = DIRECTION ( 'NONE',  ( 4.202028969572153373E-30, -1.000000000000000000, 1.232047923278982939E-15 ) ) ;
#125 = EDGE_LOOP ( 'NONE', ( #152 ) ) ;
#126 = ORIENTED_EDGE ( 'NONE', *, *, #153, .F. ) ;
#127 = COORDINATED_UNIVERSAL_TIME_OFFSET ( 1, 0, .AHEAD. ) ;
#128 = ORIENTED_EDGE ( 'NONE', *, *, #118, .F. ) ;
#129 = ORGANIZATION ( 'UNSPECIFIED', 'UNSPECIFIED', '' ) ;
#130 = CARTESIAN_POINT ( 'NONE',  ( 0.0000000000000000000, 0.0000000000000000000, 0.0000000000000000000 ) ) ;
#131 = DIRECTION ( 'NONE',  ( -3.491481338843133355E-15, 1.224646799147353207E-16, -1.000000000000000000 ) ) ;
#132 = DIRECTION ( 'NONE',  ( -3.491481338843133355E-15, 1.224646799147353207E-16, -1.000000000000000000 ) ) ;
#133 = FACE_OUTER_BOUND ( 'NONE', #13, .T. ) ;
#134 = PRODUCT_RELATED_PRODUCT_CATEGORY ( 'detail', '', ( #88 ) ) ;
#135 = CARTESIAN_POINT ( 'NONE',  ( -3.491481338843130200E-15, -1.224646799147353059E-15, -0.9999999999999991118 ) ) ;
#136 =( GEOMETRIC_REPRESENTATION_CONTEXT ( 3 ) GLOBAL_UNCERTAINTY_ASSIGNED_CONTEXT ( ( #15 ) ) GLOBAL_UNIT_ASSIGNED_CONTEXT ( ( #5, #226, #42 ) ) REPRESENTATION_CONTEXT ( 'NONE', 'WORKASPACE' ) );
#137 = APPROVAL_DATE_TIME ( #156, #38 ) ;
#138 = COORDINATED_UNIVERSAL_TIME_OFFSET ( 1, 0, .AHEAD. ) ;
#139 = APPROVAL ( #29, 'UNSPECIFIED' ) ;
#140 = PERSON_AND_ORGANIZATION ( #1, #129 ) ;
#141 = DIRECTION ( 'NONE',  ( 3.491481338843133355E-15, 1.224646799147354045E-15, 1.000000000000000000 ) ) ;
#142 = DIRECTION ( 'NONE',  ( 0.0000000000000000000, 1.000000000000000000, 0.0000000000000000000 ) ) ;
#143 = DIRECTION ( 'NONE',  ( -3.491481338843133355E-15, -1.224646799147354045E-15, -1.000000000000000000 ) ) ;
#144 = APPROVAL_PERSON_ORGANIZATION ( #39, #38, #79 ) ;
#145 = EDGE_LOOP ( 'NONE', ( #259 ) ) ;
#146 = PERSON_AND_ORGANIZATION_ROLE ( 'classification_officer' ) ;
#147 = ADVANCED_FACE ( 'NONE', ( #113, #211 ), #46, .T. ) ;
#148 = CLOSED_SHELL ( 'NONE', ( #154, #78, #4, #60 ) ) ;
#149 = EDGE_LOOP ( 'NONE', ( #109 ) ) ;
#150 = PERSON_AND_ORGANIZATION ( #1, #129 ) ;
#151 = FACE_OUTER_BOUND ( 'NONE', #185, .T. ) ;
#152 = ORIENTED_EDGE ( 'NONE', *, *, #118, .T. ) ;
#153 = EDGE_CURVE ( 'NONE', #20, #20, #195, .T. ) ;
#154 = ADVANCED_FACE ( 'NONE', ( #34 ), #11, .T. ) ;
#155 = DIRECTION ( 'NONE',  ( 4.275831445896958607E-31, 1.000000000000000000, 1.224646799147353207E-16 ) ) ;
#156 = DATE_AND_TIME ( #162, #27 ) ;
#157 = DIRECTION ( 'NONE',  ( 0.0000000000000000000, 0.0000000000000000000, 1.000000000000000000 ) ) ;
#158 = CIRCLE ( 'NONE', #171, 2.199999999999998845 ) ;
#159 = CARTESIAN_POINT ( 'NONE',  ( 1.047444401652940007E-13, 3.673940397442062649E-14, 30.00000000000000000 ) ) ;
#160 = CARTESIAN_POINT ( 'NONE',  ( 3.816799074919669688E-15, 2.749999999999999556, 1.093174702799450282 ) ) ;
#161 = CARTESIAN_POINT ( 'NONE',  ( 2.279937314264566018E-13, -7.996943598432214956E-15, 65.29999999999999716 ) ) ;
#162 = CALENDAR_DATE ( 2021, 15, 10 ) ;
#163 = VERTEX_POINT ( 'NONE', #119 ) ;
#164 = AXIS2_PLACEMENT_3D ( 'NONE', #130, #132, #213 ) ;
#165 = PERSON_AND_ORGANIZATION_ROLE ( 'design_owner' ) ;
#166 = ORIENTED_EDGE ( 'NONE', *, *, #214, .F. ) ;
#167 = FACE_OUTER_BOUND ( 'NONE', #180, .T. ) ;
#168 = APPLICATION_PROTOCOL_DEFINITION ( 'international standard', 'config_control_design', 1994, #248 ) ;
#169 = EDGE_LOOP ( 'NONE', ( #234 ) ) ;
#170 = AXIS2_PLACEMENT_3D ( 'NONE', #3, #157, #223 ) ;
#171 = AXIS2_PLACEMENT_3D ( 'NONE', #112, #99, #217 ) ;
#172 = CIRCLE ( 'NONE', #191, 2.749999999999976463 ) ;
#173 = CIRCLE ( 'NONE', #243, 2.749999999999976463 ) ;
#174 = AXIS2_PLACEMENT_3D ( 'NONE', #71, #227, #120 ) ;
#175 = PERSON_AND_ORGANIZATION_ROLE ( 'creator' ) ;
#176 = DATE_AND_TIME ( #204, #84 ) ;
#177 = CC_DESIGN_PERSON_AND_ORGANIZATION_ASSIGNMENT ( #140, #254, ( #23 ) ) ;
#178 = AXIS2_PLACEMENT_3D ( 'NONE', #135, #80, #200 ) ;
#179 = LOCAL_TIME ( 11, 34, 10.00000000000000000, #55 ) ;
#180 = EDGE_LOOP ( 'NONE', ( #110 ) ) ;
#181 = PERSON_AND_ORGANIZATION ( #1, #129 ) ;
#182 = ORIENTED_EDGE ( 'NONE', *, *, #221, .F. ) ;
#183 = AXIS2_PLACEMENT_3D ( 'NONE', #58, #131, #212 ) ;
#184 = ORIENTED_EDGE ( 'NONE', *, *, #214, .T. ) ;
#185 = EDGE_LOOP ( 'NONE', ( #53 ) ) ;
#186 = DIRECTION ( 'NONE',  ( 0.0000000000000000000, -1.000000000000000000, 0.0000000000000000000 ) ) ;
#187 = CC_DESIGN_DATE_AND_TIME_ASSIGNMENT ( #203, #67, ( #238 ) ) ;
#188 = EDGE_LOOP ( 'NONE', ( #128 ) ) ;
#189 = DIRECTION ( 'NONE',  ( 3.491481338843133355E-15, 1.224646799147354045E-15, 1.000000000000000000 ) ) ;
#190 = CARTESIAN_POINT ( 'NONE',  ( 1.047444401652940007E-13, 2.249639673992777927E-32, 30.00000000000000000 ) ) ;
#191 = AXIS2_PLACEMENT_3D ( 'NONE', #90, #69, #232 ) ;
#192 = EDGE_CURVE ( 'NONE', #201, #201, #218, .T. ) ;
#193 = DIRECTION ( 'NONE',  ( 3.491481338843133355E-15, -1.224646799147353207E-16, 1.000000000000000000 ) ) ;
#194 = DIRECTION ( 'NONE',  ( -3.491481338843133355E-15, 1.224646799147353207E-16, -1.000000000000000000 ) ) ;
#195 = CIRCLE ( 'NONE', #81, 2.749999999999954259 ) ;
#196 = DIRECTION ( 'NONE',  ( -4.275831445896958607E-31, -1.000000000000000000, -1.224646799147353207E-16 ) ) ;
#197 = DATE_TIME_ROLE ( 'classification_date' ) ;
#198 = CC_DESIGN_APPROVAL ( #38, ( #76 ) ) ;
#199 = ADVANCED_FACE ( 'NONE', ( #33, #87 ), #85, .T. ) ;
#200 = DIRECTION ( 'NONE',  ( -4.202028969572187004E-30, 1.000000000000000000, -1.261617073437688698E-15 ) ) ;
#201 = VERTEX_POINT ( 'NONE', #160 ) ;
#202 = CARTESIAN_POINT ( 'NONE',  ( 1.202222212888055765E-13, -2.999999999999956035, 34.43301270189230934 ) ) ;
#203 = DATE_AND_TIME ( #43, #56 ) ;
#204 = CALENDAR_DATE ( 2021, 15, 10 ) ;
#205 = CONICAL_SURFACE ( 'NONE', #94, 2.300000000000000266, 0.7853981633974437271 ) ;
#206 = SECURITY_CLASSIFICATION_LEVEL ( 'unclassified' ) ;
#207 = CALENDAR_DATE ( 2021, 15, 10 ) ;
#208 = DIRECTION ( 'NONE',  ( 7.043400939473417982E-30, -1.000000000000000000, 1.982541115402092917E-15 ) ) ;
#209 = EDGE_LOOP ( 'NONE', ( #10 ) ) ;
#210 = CC_DESIGN_APPROVAL ( #247, ( #238 ) ) ;
#211 = FACE_OUTER_BOUND ( 'NONE', #107, .T. ) ;
#212 = DIRECTION ( 'NONE',  ( 0.0000000000000000000, 1.000000000000000000, 0.0000000000000000000 ) ) ;
#213 = DIRECTION ( 'NONE',  ( 4.275831445896958607E-31, 1.000000000000000000, 1.224646799147353454E-16 ) ) ;
#214 = EDGE_CURVE ( 'NONE', #26, #26, #35, .T. ) ;
#215 = DIRECTION ( 'NONE',  ( -3.491481338843133355E-15, -1.224646799147354045E-15, -1.000000000000000000 ) ) ;
#216 = CIRCLE ( 'NONE', #19, 3.000000000000000000 ) ;
#217 = DIRECTION ( 'NONE',  ( -4.202028969572153373E-30, 1.000000000000000000, -1.232047923278982939E-15 ) ) ;
#218 = CIRCLE ( 'NONE', #28, 2.749999999999998224 ) ;
#219 = AXIS2_PLACEMENT_3D ( 'NONE', #190, #193, #98 ) ;
#220 = CYLINDRICAL_SURFACE ( 'NONE', #178, 2.749999999999976463 ) ;
#221 = EDGE_CURVE ( 'NONE', #86, #86, #216, .T. ) ;
#222 = CALENDAR_DATE ( 2021, 15, 10 ) ;
#223 = DIRECTION ( 'NONE',  ( 1.000000000000000000, 0.0000000000000000000, 0.0000000000000000000 ) ) ;
#224 = DIRECTION ( 'NONE',  ( 3.491481338843133355E-15, -1.224646799147353207E-16, 1.000000000000000000 ) ) ;
#225 = AXIS2_PLACEMENT_3D ( 'NONE', #250, #141, #124 ) ;
#226 =( NAMED_UNIT ( * ) PLANE_ANGLE_UNIT ( ) SI_UNIT ( $, .RADIAN. ) );
#227 = DIRECTION ( 'NONE',  ( 3.491481338843133355E-15, 1.224646799147354045E-15, 1.000000000000000000 ) ) ;
#228 = APPROVAL_ROLE ( '' ) ;
#229 = FACE_OUTER_BOUND ( 'NONE', #255, .T. ) ;
#230 = VERTEX_POINT ( 'NONE', #7 ) ;
#231 = EDGE_LOOP ( 'NONE', ( #184 ) ) ;
#232 = DIRECTION ( 'NONE',  ( 0.0000000000000000000, -1.000000000000000000, 0.0000000000000000000 ) ) ;
#233 = DIRECTION ( 'NONE',  ( 0.0000000000000000000, 1.000000000000000000, 0.0000000000000000000 ) ) ;
#234 = ORIENTED_EDGE ( 'NONE', *, *, #30, .T. ) ;
#235 = SHAPE_DEFINITION_REPRESENTATION ( #236, #9 ) ;
#236 = PRODUCT_DEFINITION_SHAPE ( 'NONE', 'NONE',  #238 ) ;
#237 = EDGE_LOOP ( 'NONE', ( #239 ) ) ;
#238 = PRODUCT_DEFINITION ( 'UNKNOWN', '', #23, #91 ) ;
#239 = ORIENTED_EDGE ( 'NONE', *, *, #249, .F. ) ;
#240 = APPROVAL_ROLE ( '' ) ;
#241 = FACE_BOUND ( 'NONE', #209, .T. ) ;
#242 = APPLICATION_CONTEXT ( 'configuration controlled 3d designs of mechanical parts and assemblies' ) ;
#243 = AXIS2_PLACEMENT_3D ( 'NONE', #159, #104, #186 ) ;
#244 = APPROVAL_PERSON_ORGANIZATION ( #150, #247, #240 ) ;
#245 = CONICAL_SURFACE ( 'NONE', #225, 2.199999999999998845, 1.221730476396032161 ) ;
#246 = CARTESIAN_POINT ( 'NONE',  ( 2.304377683636468267E-13, -8.082668874372532400E-15, 66.00000000000000000 ) ) ;
#247 = APPROVAL ( #49, 'UNSPECIFIED' ) ;
#248 = APPLICATION_CONTEXT ( 'configuration controlled 3d designs of mechanical parts and assemblies' ) ;
#249 = EDGE_CURVE ( 'NONE', #163, #163, #172, .T. ) ;
#250 = CARTESIAN_POINT ( 'NONE',  ( 2.795749617836566115E-15, 9.806169612338331855E-16, 0.8007345153856413322 ) ) ;
#251 = VERTEX_POINT ( 'NONE', #114 ) ;
#252 = COORDINATED_UNIVERSAL_TIME_OFFSET ( 1, 0, .AHEAD. ) ;
#253 = MANIFOLD_SOLID_BREP ( 'Corps-Déplacer/Copier1[2]', #148 ) ;
#254 = PERSON_AND_ORGANIZATION_ROLE ( 'creator' ) ;
#255 = EDGE_LOOP ( 'NONE', ( #52 ) ) ;
#256 = DIRECTION ( 'NONE',  ( -4.202028969572187004E-30, 1.000000000000000000, -1.261617073437688698E-15 ) ) ;
#257 = EDGE_LOOP ( 'NONE', ( #126 ) ) ;
#258 = PERSON_AND_ORGANIZATION ( #1, #129 ) ;
#259 = ORIENTED_EDGE ( 'NONE', *, *, #153, .T. ) ;
#260 = CC_DESIGN_PERSON_AND_ORGANIZATION_ASSIGNMENT ( #258, #146, ( #76 ) ) ;
#261 = ORIENTED_EDGE ( 'NONE', *, *, #21, .F. ) ;
#262 = CARTESIAN_POINT ( 'NONE',  ( 1.232459328250827275E-13, 4.322885402909739996E-14, 35.29903810567665801 ) ) ;
#263 = DIRECTION ( 'NONE',  ( 4.202028969572153373E-30, -1.000000000000000000, 1.261617073437678640E-15 ) ) ;
ENDSEC;
END-ISO-10303-21;
