ISO-10303-21;
HEADER;
FILE_DESCRIPTION (( 'STEP AP203' ),
    '1' );
FILE_NAME ('62864.step',
    '2021-10-15T09:34:09',
    ( '' ),
    ( '' ),
    'SwSTEP 2.0',
    'SolidWorks 2019',
    '' );
FILE_SCHEMA (( 'CONFIG_CONTROL_DESIGN' ));
ENDSEC;

DATA;
#1 = CYLINDRICAL_SURFACE ( 'NONE', #245, 2.999999999999997780 ) ;
#2 = DIRECTION ( 'NONE',  ( -4.180313057584736099E-30, 1.000000000000000000, -1.260700200564551579E-15 ) ) ;
#3 = CIRCLE ( 'NONE', #84, 2.579999999999998739 ) ;
#4 = AXIS2_PLACEMENT_3D ( 'NONE', #68, #67, #86 ) ;
#5 = CARTESIAN_POINT ( 'NONE',  ( 2.304377683636468267E-13, -8.082668874372532400E-15, 66.00000000000000000 ) ) ;
#6 = DIRECTION ( 'NONE',  ( 4.321598899600629065E-30, -1.000000000000000000, 1.216421949617883663E-15 ) ) ;
#7 = DIRECTION ( 'NONE',  ( -3.491481338843133355E-15, 1.224646799147353207E-16, -1.000000000000000000 ) ) ;
#8 = APPLICATION_CONTEXT ( 'configuration controlled 3d designs of mechanical parts and assemblies' ) ;
#9 = DIRECTION ( 'NONE',  ( 0.0000000000000000000, 0.0000000000000000000, 1.000000000000000000 ) ) ;
#10 = DIRECTION ( 'NONE',  ( 8.217301096052212846E-30, -1.000000000000000000, 2.312964634635744633E-15 ) ) ;
#11 = ORIENTED_EDGE ( 'NONE', *, *, #186, .T. ) ;
#12 = MECHANICAL_CONTEXT ( 'NONE', #8, 'mechanical' ) ;
#13 = EDGE_LOOP ( 'NONE', ( #69 ) ) ;
#14 = ORGANIZATION ( 'UNSPECIFIED', 'UNSPECIFIED', '' ) ;
#15 = ADVANCED_FACE ( 'NONE', ( #182, #196 ), #198, .T. ) ;
#16 = VERTEX_POINT ( 'NONE', #89 ) ;
#17 = APPROVAL_ROLE ( '' ) ;
#18 = DATE_AND_TIME ( #19, #175 ) ;
#19 = CALENDAR_DATE ( 2021, 15, 10 ) ;
#20 = APPROVAL_STATUS ( 'not_yet_approved' ) ;
#21 = DIRECTION ( 'NONE',  ( 3.491481338843133355E-15, 1.224646799147354045E-15, 1.000000000000000000 ) ) ;
#22 = DIRECTION ( 'NONE',  ( -3.491481338843133355E-15, -1.224646799147354045E-15, -1.000000000000000000 ) ) ;
#23 = FACE_OUTER_BOUND ( 'NONE', #167, .T. ) ;
#24 = DIRECTION ( 'NONE',  ( -4.275831445896958607E-31, -1.000000000000000000, -1.224646799147353207E-16 ) ) ;
#25 = PERSON_AND_ORGANIZATION_ROLE ( 'design_owner' ) ;
#26 = CARTESIAN_POINT ( 'NONE',  ( 3.589050711627790106E-15, 2.579999999999999627, 1.027944979026290673 ) ) ;
#27 = CONICAL_SURFACE ( 'NONE', #205, 2.579999999999998739, 1.082104136236485603 ) ;
#28 = VERTEX_POINT ( 'NONE', #83 ) ;
#29 = ORIENTED_EDGE ( 'NONE', *, *, #220, .T. ) ;
#30 = PERSON_AND_ORGANIZATION ( #64, #14 ) ;
#31 = COORDINATED_UNIVERSAL_TIME_OFFSET ( 1, 0, .AHEAD. ) ;
#32 = EDGE_LOOP ( 'NONE', ( #11 ) ) ;
#33 = AXIS2_PLACEMENT_3D ( 'NONE', #137, #57, #24 ) ;
#34 = APPROVAL_PERSON_ORGANIZATION ( #53, #121, #260 ) ;
#35 = EDGE_CURVE ( 'NONE', #204, #204, #3, .T. ) ;
#36 = AXIS2_PLACEMENT_3D ( 'NONE', #183, #22, #217 ) ;
#37 = PLANE ( 'NONE',  #174 ) ;
#38 = CYLINDRICAL_SURFACE ( 'NONE', #36, 2.579999999999976534 ) ;
#39 = CC_DESIGN_PERSON_AND_ORGANIZATION_ASSIGNMENT ( #30, #230, ( #120 ) ) ;
#40 = FACE_OUTER_BOUND ( 'NONE', #61, .T. ) ;
#41 = CARTESIAN_POINT ( 'NONE',  ( 2.304377683636468267E-13, 1.724723750061123933E-32, 66.00000000000000000 ) ) ;
#42 = CONICAL_SURFACE ( 'NONE', #118, 3.499999999999950706, 0.5235987755982964842 ) ;
#43 = DIRECTION ( 'NONE',  ( -4.275831445896958607E-31, -1.000000000000000000, -1.224646799147353207E-16 ) ) ;
#44 = PRODUCT_DEFINITION ( 'UNKNOWN', '', #120, #218 ) ;
#45 = DIRECTION ( 'NONE',  ( -3.491481338843133355E-15, 1.224646799147353207E-16, -1.000000000000000000 ) ) ;
#46 =( LENGTH_UNIT ( ) NAMED_UNIT ( * ) SI_UNIT ( .MILLI., .METRE. ) );
#47 = CARTESIAN_POINT ( 'NONE',  ( 0.0000000000000000000, 0.0000000000000000000, 0.0000000000000000000 ) ) ;
#48 = ORIENTED_EDGE ( 'NONE', *, *, #168, .F. ) ;
#49 =( GEOMETRIC_REPRESENTATION_CONTEXT ( 3 ) GLOBAL_UNCERTAINTY_ASSIGNED_CONTEXT ( ( #158 ) ) GLOBAL_UNIT_ASSIGNED_CONTEXT ( ( #46, #110, #113 ) ) REPRESENTATION_CONTEXT ( 'NONE', 'WORKASPACE' ) );
#50 = APPROVAL_DATE_TIME ( #148, #263 ) ;
#51 = DATE_TIME_ROLE ( 'classification_date' ) ;
#52 = ORIENTED_EDGE ( 'NONE', *, *, #35, .T. ) ;
#53 = PERSON_AND_ORGANIZATION ( #64, #14 ) ;
#54 = EDGE_CURVE ( 'NONE', #16, #16, #100, .T. ) ;
#55 = FACE_BOUND ( 'NONE', #233, .T. ) ;
#56 = AXIS2_PLACEMENT_3D ( 'NONE', #139, #219, #126 ) ;
#57 = DIRECTION ( 'NONE',  ( 3.491481338843133355E-15, -1.224646799147353207E-16, 1.000000000000000000 ) ) ;
#58 = CIRCLE ( 'NONE', #101, 3.000000000000000000 ) ;
#59 = FACE_OUTER_BOUND ( 'NONE', #258, .T. ) ;
#60 = CARTESIAN_POINT ( 'NONE',  ( 3.589050711627801150E-15, 1.258869528264144679E-15, 1.027944979026293781 ) ) ;
#61 = EDGE_LOOP ( 'NONE', ( #72 ) ) ;
#62 = LOCAL_TIME ( 11, 34, 9.000000000000000000, #151 ) ;
#63 = APPLICATION_PROTOCOL_DEFINITION ( 'international standard', 'config_control_design', 1994, #8 ) ;
#64 = PERSON ( 'UNSPECIFIED', 'UNSPECIFIED', 'UNSPECIFIED', ('UNSPECIFIED'), ('UNSPECIFIED'), ('UNSPECIFIED') ) ;
#65 = DIRECTION ( 'NONE',  ( 0.0000000000000000000, 1.000000000000000000, 0.0000000000000000000 ) ) ;
#66 = AXIS2_PLACEMENT_3D ( 'NONE', #122, #21, #6 ) ;
#67 = DIRECTION ( 'NONE',  ( -3.491481338843133355E-15, 1.224646799147353207E-16, -1.000000000000000000 ) ) ;
#68 = CARTESIAN_POINT ( 'NONE',  ( 1.047444401652940007E-13, 3.673940397442062649E-14, 30.00000000000000000 ) ) ;
#69 = ORIENTED_EDGE ( 'NONE', *, *, #239, .F. ) ;
#70 = APPLICATION_CONTEXT ( 'configuration controlled 3d designs of mechanical parts and assemblies' ) ;
#71 = PERSON_AND_ORGANIZATION ( #64, #14 ) ;
#72 = ORIENTED_EDGE ( 'NONE', *, *, #220, .F. ) ;
#73 = CALENDAR_DATE ( 2021, 15, 10 ) ;
#74 = APPROVAL_DATE_TIME ( #18, #121 ) ;
#75 = ADVANCED_FACE ( 'NONE', ( #40 ), #244, .F. ) ;
#76 = AXIS2_PLACEMENT_3D ( 'NONE', #5, #81, #159 ) ;
#77 = APPROVAL_DATE_TIME ( #235, #225 ) ;
#78 = DIRECTION ( 'NONE',  ( -3.491481338843133355E-15, 1.224646799147353207E-16, -1.000000000000000000 ) ) ;
#79 = DIRECTION ( 'NONE',  ( -3.491481338843133355E-15, 1.224646799147353207E-16, -1.000000000000000000 ) ) ;
#80 = DIRECTION ( 'NONE',  ( 0.0000000000000000000, -1.000000000000000000, 0.0000000000000000000 ) ) ;
#81 = DIRECTION ( 'NONE',  ( -3.491481338843133355E-15, 1.224646799147353207E-16, -1.000000000000000000 ) ) ;
#82 = FACE_OUTER_BOUND ( 'NONE', #228, .T. ) ;
#83 = CARTESIAN_POINT ( 'NONE',  ( 1.212502832111399154E-13, -2.999999999999955591, 34.72746133917902256 ) ) ;
#84 = AXIS2_PLACEMENT_3D ( 'NONE', #216, #240, #222 ) ;
#85 = AXIS2_PLACEMENT_3D ( 'NONE', #47, #9, #142 ) ;
#86 = DIRECTION ( 'NONE',  ( 0.0000000000000000000, -1.000000000000000000, 0.0000000000000000000 ) ) ;
#87 = DIRECTION ( 'NONE',  ( -3.491481338843133355E-15, -1.224646799147354045E-15, -1.000000000000000000 ) ) ;
#88 = ORIENTED_EDGE ( 'NONE', *, *, #186, .F. ) ;
#89 = CARTESIAN_POINT ( 'NONE',  ( 1.047444401652940007E-13, -2.579999999999939675, 30.00000000000000000 ) ) ;
#90 = APPROVAL_STATUS ( 'not_yet_approved' ) ;
#91 = ADVANCED_FACE ( 'NONE', ( #262 ), #37, .T. ) ;
#92 = EDGE_LOOP ( 'NONE', ( #150 ) ) ;
#93 = PERSON_AND_ORGANIZATION ( #64, #14 ) ;
#94 = CIRCLE ( 'NONE', #248, 2.049999999999998934 ) ;
#95 = APPROVAL_PERSON_ORGANIZATION ( #185, #263, #133 ) ;
#96 = PERSON_AND_ORGANIZATION ( #64, #14 ) ;
#97 = ADVANCED_FACE ( 'NONE', ( #55, #102 ), #27, .T. ) ;
#98 = COORDINATED_UNIVERSAL_TIME_OFFSET ( 1, 0, .AHEAD. ) ;
#99 = DATE_AND_TIME ( #73, #62 ) ;
#100 = CIRCLE ( 'NONE', #153, 2.579999999999976534 ) ;
#101 = AXIS2_PLACEMENT_3D ( 'NONE', #127, #7, #171 ) ;
#102 = FACE_OUTER_BOUND ( 'NONE', #108, .T. ) ;
#103 = PLANE ( 'NONE',  #33 ) ;
#104 = CARTESIAN_POINT ( 'NONE',  ( 1.047444401652940007E-13, 3.673940397442062649E-14, 30.00000000000000000 ) ) ;
#105 = ADVANCED_BREP_SHAPE_REPRESENTATION ( '62864', ( #253, #160, #85 ), #49 ) ;
#106 = DIRECTION ( 'NONE',  ( 4.275831445896958607E-31, 1.000000000000000000, 1.224646799147353207E-16 ) ) ;
#107 = ADVANCED_FACE ( 'NONE', ( #157 ), #201, .T. ) ;
#108 = EDGE_LOOP ( 'NONE', ( #52 ) ) ;
#109 = DIRECTION ( 'NONE',  ( 3.491481338843133355E-15, 1.224646799147354045E-15, 1.000000000000000000 ) ) ;
#110 =( NAMED_UNIT ( * ) PLANE_ANGLE_UNIT ( ) SI_UNIT ( $, .RADIAN. ) );
#111 = CLOSED_SHELL ( 'NONE', ( #129, #146, #75, #15, #194, #125 ) ) ;
#112 = FACE_OUTER_BOUND ( 'NONE', #209, .T. ) ;
#113 =( NAMED_UNIT ( * ) SI_UNIT ( $, .STERADIAN. ) SOLID_ANGLE_UNIT ( ) );
#114 = ORIENTED_EDGE ( 'NONE', *, *, #229, .F. ) ;
#115 = ORIENTED_EDGE ( 'NONE', *, *, #213, .F. ) ;
#116 = SECURITY_CLASSIFICATION_LEVEL ( 'unclassified' ) ;
#117 = AXIS2_PLACEMENT_3D ( 'NONE', #123, #243, #2 ) ;
#118 = AXIS2_PLACEMENT_3D ( 'NONE', #223, #207, #169 ) ;
#119 = PERSON_AND_ORGANIZATION_ROLE ( 'design_supplier' ) ;
#120 = PRODUCT_DEFINITION_FORMATION_WITH_SPECIFIED_SOURCE ( 'ANY', '', #193, .NOT_KNOWN. ) ;
#121 = APPROVAL ( #255, 'UNSPECIFIED' ) ;
#122 = CARTESIAN_POINT ( 'NONE',  ( 2.605130325711345591E-15, 9.137567138769808511E-16, 0.7461389802457111253 ) ) ;
#123 = CARTESIAN_POINT ( 'NONE',  ( -3.491481338843130200E-15, -1.224646799147353059E-15, -0.9999999999999991118 ) ) ;
#124 = FACE_BOUND ( 'NONE', #250, .T. ) ;
#125 = ADVANCED_FACE ( 'NONE', ( #59 ), #103, .F. ) ;
#126 = DIRECTION ( 'NONE',  ( 0.0000000000000000000, 1.000000000000000000, 0.0000000000000000000 ) ) ;
#127 = CARTESIAN_POINT ( 'NONE',  ( 2.279937314264566018E-13, -7.996943598432214956E-15, 65.29999999999999716 ) ) ;
#128 = APPLICATION_PROTOCOL_DEFINITION ( 'international standard', 'config_control_design', 1994, #70 ) ;
#129 = ADVANCED_FACE ( 'NONE', ( #181, #199 ), #1, .T. ) ;
#130 = PRODUCT_DEFINITION_SHAPE ( 'NONE', 'NONE',  #44 ) ;
#131 = CALENDAR_DATE ( 2021, 15, 10 ) ;
#132 = SHAPE_DEFINITION_REPRESENTATION ( #130, #105 ) ;
#133 = APPROVAL_ROLE ( '' ) ;
#134 = DIRECTION ( 'NONE',  ( 4.180313057584700365E-30, -1.000000000000000000, 1.260700200564540732E-15 ) ) ;
#135 = AXIS2_PLACEMENT_3D ( 'NONE', #249, #109, #10 ) ;
#136 = DIRECTION ( 'NONE',  ( 4.275831445896958607E-31, 1.000000000000000000, 1.224646799147353454E-16 ) ) ;
#137 = CARTESIAN_POINT ( 'NONE',  ( 1.047444401652940007E-13, 2.249639673992777927E-32, 30.00000000000000000 ) ) ;
#138 = CC_DESIGN_PERSON_AND_ORGANIZATION_ASSIGNMENT ( #93, #119, ( #120 ) ) ;
#139 = CARTESIAN_POINT ( 'NONE',  ( 1.187103655206665341E-13, 4.163799117101004504E-14, 34.00000000000000000 ) ) ;
#140 = CIRCLE ( 'NONE', #4, 2.579999999999976534 ) ;
#141 = DIRECTION ( 'NONE',  ( 3.491481338843133355E-15, -1.224646799147353207E-16, 1.000000000000000000 ) ) ;
#142 = DIRECTION ( 'NONE',  ( 1.000000000000000000, 0.0000000000000000000, 0.0000000000000000000 ) ) ;
#143 = ADVANCED_FACE ( 'NONE', ( #23, #82 ), #38, .T. ) ;
#144 = FACE_BOUND ( 'NONE', #172, .T. ) ;
#145 = CARTESIAN_POINT ( 'NONE',  ( 2.605130325711336913E-15, 2.049999999999999822, 0.7461389802457086828 ) ) ;
#146 = ADVANCED_FACE ( 'NONE', ( #161, #124 ), #257, .T. ) ;
#147 = ORIENTED_EDGE ( 'NONE', *, *, #213, .T. ) ;
#148 = DATE_AND_TIME ( #259, #231 ) ;
#149 = AXIS2_PLACEMENT_3D ( 'NONE', #41, #184, #106 ) ;
#150 = ORIENTED_EDGE ( 'NONE', *, *, #54, .F. ) ;
#151 = COORDINATED_UNIVERSAL_TIME_OFFSET ( 1, 0, .AHEAD. ) ;
#152 = PERSON_AND_ORGANIZATION_ROLE ( 'classification_officer' ) ;
#153 = AXIS2_PLACEMENT_3D ( 'NONE', #104, #78, #80 ) ;
#154 = CC_DESIGN_DATE_AND_TIME_ASSIGNMENT ( #178, #51, ( #210 ) ) ;
#155 = ORIENTED_EDGE ( 'NONE', *, *, #239, .T. ) ;
#156 = CARTESIAN_POINT ( 'NONE',  ( 0.0000000000000000000, 0.0000000000000000000, 0.0000000000000000000 ) ) ;
#157 = FACE_OUTER_BOUND ( 'NONE', #32, .T. ) ;
#158 = UNCERTAINTY_MEASURE_WITH_UNIT (LENGTH_MEASURE( 1.000000000000000082E-05 ), #46, 'distance_accuracy_value', 'NONE');
#159 = DIRECTION ( 'NONE',  ( 0.0000000000000000000, 1.000000000000000000, 0.0000000000000000000 ) ) ;
#160 = MANIFOLD_SOLID_BREP ( 'Corps-Déplacer/Copier1[2]', #214 ) ;
#161 = FACE_OUTER_BOUND ( 'NONE', #13, .T. ) ;
#162 = APPROVAL_PERSON_ORGANIZATION ( #177, #225, #17 ) ;
#163 = CARTESIAN_POINT ( 'NONE',  ( 1.047444401652940007E-13, -2.579999999999939675, 30.00000000000000000 ) ) ;
#164 = CC_DESIGN_DATE_AND_TIME_ASSIGNMENT ( #99, #232, ( #44 ) ) ;
#165 = VERTEX_POINT ( 'NONE', #247 ) ;
#166 = VERTEX_POINT ( 'NONE', #145 ) ;
#167 = EDGE_LOOP ( 'NONE', ( #254 ) ) ;
#168 = EDGE_CURVE ( 'NONE', #227, #227, #197, .T. ) ;
#169 = DIRECTION ( 'NONE',  ( 7.043400939473419384E-30, -1.000000000000000000, 1.982541115402093312E-15 ) ) ;
#170 = ORIENTED_EDGE ( 'NONE', *, *, #168, .T. ) ;
#171 = DIRECTION ( 'NONE',  ( 0.0000000000000000000, 1.000000000000000000, 0.0000000000000000000 ) ) ;
#172 = EDGE_LOOP ( 'NONE', ( #48 ) ) ;
#173 = EDGE_LOOP ( 'NONE', ( #155 ) ) ;
#174 = AXIS2_PLACEMENT_3D ( 'NONE', #238, #141, #43 ) ;
#175 = LOCAL_TIME ( 11, 34, 9.000000000000000000, #98 ) ;
#176 = ORIENTED_EDGE ( 'NONE', *, *, #35, .F. ) ;
#177 = PERSON_AND_ORGANIZATION ( #64, #14 ) ;
#178 = DATE_AND_TIME ( #131, #202 ) ;
#179 = CC_DESIGN_APPROVAL ( #225, ( #210 ) ) ;
#180 = ORIENTED_EDGE ( 'NONE', *, *, #54, .T. ) ;
#181 = FACE_OUTER_BOUND ( 'NONE', #191, .T. ) ;
#182 = FACE_OUTER_BOUND ( 'NONE', #242, .T. ) ;
#183 = CARTESIAN_POINT ( 'NONE',  ( -3.491481338843130200E-15, -1.224646799147353059E-15, -0.9999999999999991118 ) ) ;
#184 = DIRECTION ( 'NONE',  ( -3.491481338843133355E-15, 1.224646799147353207E-16, -1.000000000000000000 ) ) ;
#185 = PERSON_AND_ORGANIZATION ( #64, #14 ) ;
#186 = EDGE_CURVE ( 'NONE', #166, #166, #94, .T. ) ;
#187 = VERTEX_POINT ( 'NONE', #226 ) ;
#188 = DIRECTION ( 'NONE',  ( -4.321598899600629065E-30, 1.000000000000000000, -1.216421949617883663E-15 ) ) ;
#189 = EDGE_LOOP ( 'NONE', ( #114 ) ) ;
#190 = CC_DESIGN_APPROVAL ( #121, ( #120 ) ) ;
#191 = EDGE_LOOP ( 'NONE', ( #147 ) ) ;
#192 = CALENDAR_DATE ( 2021, 15, 10 ) ;
#193 = PRODUCT ( '62864', '62864', '', ( #12 ) ) ;
#194 = ADVANCED_FACE ( 'NONE', ( #144, #112 ), #42, .T. ) ;
#195 = COORDINATED_UNIVERSAL_TIME_OFFSET ( 1, 0, .AHEAD. ) ;
#196 = FACE_OUTER_BOUND ( 'NONE', #92, .T. ) ;
#197 = CIRCLE ( 'NONE', #56, 2.579999999999954330 ) ;
#198 = CYLINDRICAL_SURFACE ( 'NONE', #117, 2.579999999999976534 ) ;
#199 = FACE_OUTER_BOUND ( 'NONE', #173, .T. ) ;
#200 = DIRECTION ( 'NONE',  ( 3.491481338843133355E-15, 1.224646799147354045E-15, 1.000000000000000000 ) ) ;
#201 = CONICAL_SURFACE ( 'NONE', #66, 2.049999999999998934, 1.221730476396032161 ) ;
#202 = LOCAL_TIME ( 11, 34, 9.000000000000000000, #195 ) ;
#203 = CARTESIAN_POINT ( 'NONE',  ( 2.605130325711345591E-15, 9.137567138769808511E-16, 0.7461389802457111253 ) ) ;
#204 = VERTEX_POINT ( 'NONE', #26 ) ;
#205 = AXIS2_PLACEMENT_3D ( 'NONE', #60, #200, #134 ) ;
#206 = CIRCLE ( 'NONE', #215, 2.300000000000000266 ) ;
#207 = DIRECTION ( 'NONE',  ( 3.491481338843133355E-15, 1.224646799147354045E-15, 1.000000000000000000 ) ) ;
#208 = VERTEX_POINT ( 'NONE', #163 ) ;
#209 = EDGE_LOOP ( 'NONE', ( #115 ) ) ;
#210 = SECURITY_CLASSIFICATION ( '', '', #116 ) ;
#211 = CC_DESIGN_PERSON_AND_ORGANIZATION_ASSIGNMENT ( #96, #152, ( #210 ) ) ;
#212 = CC_DESIGN_PERSON_AND_ORGANIZATION_ASSIGNMENT ( #71, #234, ( #44 ) ) ;
#213 = EDGE_CURVE ( 'NONE', #28, #28, #236, .T. ) ;
#214 = CLOSED_SHELL ( 'NONE', ( #91, #107, #97, #143 ) ) ;
#215 = AXIS2_PLACEMENT_3D ( 'NONE', #246, #45, #65 ) ;
#216 = CARTESIAN_POINT ( 'NONE',  ( 3.589050711627801150E-15, 1.258869528264144679E-15, 1.027944979026293781 ) ) ;
#217 = DIRECTION ( 'NONE',  ( -4.180313057584736099E-30, 1.000000000000000000, -1.260700200564551579E-15 ) ) ;
#218 = DESIGN_CONTEXT ( 'detailed design', #70, 'design' ) ;
#219 = DIRECTION ( 'NONE',  ( -3.491481338843133355E-15, -1.224646799147354045E-15, -1.000000000000000000 ) ) ;
#220 = EDGE_CURVE ( 'NONE', #165, #165, #206, .T. ) ;
#221 = LOCAL_TIME ( 11, 34, 9.000000000000000000, #256 ) ;
#222 = DIRECTION ( 'NONE',  ( -4.180313057584700365E-30, 1.000000000000000000, -1.260700200564540732E-15 ) ) ;
#223 = CARTESIAN_POINT ( 'NONE',  ( 1.242739947474170916E-13, 4.358944961026388029E-14, 35.59348674296337123 ) ) ;
#224 = PERSON_AND_ORGANIZATION ( #64, #14 ) ;
#225 = APPROVAL ( #20, 'UNSPECIFIED' ) ;
#226 = CARTESIAN_POINT ( 'NONE',  ( 2.279937314264566018E-13, 2.999999999999992450, 65.29999999999999716 ) ) ;
#227 = VERTEX_POINT ( 'NONE', #251 ) ;
#228 = EDGE_LOOP ( 'NONE', ( #176 ) ) ;
#229 = EDGE_CURVE ( 'NONE', #208, #208, #140, .T. ) ;
#230 = PERSON_AND_ORGANIZATION_ROLE ( 'creator' ) ;
#231 = LOCAL_TIME ( 11, 34, 9.000000000000000000, #31 ) ;
#232 = DATE_TIME_ROLE ( 'creation_date' ) ;
#233 = EDGE_LOOP ( 'NONE', ( #88 ) ) ;
#234 = PERSON_AND_ORGANIZATION_ROLE ( 'creator' ) ;
#235 = DATE_AND_TIME ( #192, #221 ) ;
#236 = CIRCLE ( 'NONE', #135, 2.999999999999997780 ) ;
#237 = CC_DESIGN_SECURITY_CLASSIFICATION ( #210, ( #120 ) ) ;
#238 = CARTESIAN_POINT ( 'NONE',  ( 1.047444401652940007E-13, 2.249639673992777927E-32, 30.00000000000000000 ) ) ;
#239 = EDGE_CURVE ( 'NONE', #187, #187, #58, .T. ) ;
#240 = DIRECTION ( 'NONE',  ( -3.491481338843133355E-15, -1.224646799147354045E-15, -1.000000000000000000 ) ) ;
#241 = CC_DESIGN_APPROVAL ( #263, ( #44 ) ) ;
#242 = EDGE_LOOP ( 'NONE', ( #170 ) ) ;
#243 = DIRECTION ( 'NONE',  ( -3.491481338843133355E-15, -1.224646799147354045E-15, -1.000000000000000000 ) ) ;
#244 = PLANE ( 'NONE',  #149 ) ;
#245 = AXIS2_PLACEMENT_3D ( 'NONE', #156, #79, #136 ) ;
#246 = CARTESIAN_POINT ( 'NONE',  ( 2.304377683636468267E-13, -8.082668874372532400E-15, 66.00000000000000000 ) ) ;
#247 = CARTESIAN_POINT ( 'NONE',  ( 2.304377683636468267E-13, 2.299999999999992273, 66.00000000000000000 ) ) ;
#248 = AXIS2_PLACEMENT_3D ( 'NONE', #203, #87, #188 ) ;
#249 = CARTESIAN_POINT ( 'NONE',  ( 1.212502832111398901E-13, 4.252887437153906325E-14, 34.72746133917901545 ) ) ;
#250 = EDGE_LOOP ( 'NONE', ( #29 ) ) ;
#251 = CARTESIAN_POINT ( 'NONE',  ( 1.187103655206665341E-13, 2.579999999999996074, 34.00000000000000000 ) ) ;
#252 = CC_DESIGN_PERSON_AND_ORGANIZATION_ASSIGNMENT ( #224, #25, ( #193 ) ) ;
#253 = MANIFOLD_SOLID_BREP ( 'Corps-Déplacer/Copier1[1]', #111 ) ;
#254 = ORIENTED_EDGE ( 'NONE', *, *, #229, .T. ) ;
#255 = APPROVAL_STATUS ( 'not_yet_approved' ) ;
#256 = COORDINATED_UNIVERSAL_TIME_OFFSET ( 1, 0, .AHEAD. ) ;
#257 = CONICAL_SURFACE ( 'NONE', #76, 2.300000000000000266, 0.7853981633974437271 ) ;
#258 = EDGE_LOOP ( 'NONE', ( #180 ) ) ;
#259 = CALENDAR_DATE ( 2021, 15, 10 ) ;
#260 = APPROVAL_ROLE ( '' ) ;
#261 = PRODUCT_RELATED_PRODUCT_CATEGORY ( 'detail', '', ( #193 ) ) ;
#262 = FACE_OUTER_BOUND ( 'NONE', #189, .T. ) ;
#263 = APPROVAL ( #90, 'UNSPECIFIED' ) ;
ENDSEC;
END-ISO-10303-21;
