ISO-10303-21;
HEADER;
FILE_DESCRIPTION (( 'STEP AP203' ),
    '1' );
FILE_NAME ('62863.step',
    '2021-10-15T09:34:09',
    ( '' ),
    ( '' ),
    'SwSTEP 2.0',
    'SolidWorks 2019',
    '' );
FILE_SCHEMA (( 'CONFIG_CONTROL_DESIGN' ));
ENDSEC;

DATA;
#1 = PERSON ( 'UNSPECIFIED', 'UNSPECIFIED', 'UNSPECIFIED', ('UNSPECIFIED'), ('UNSPECIFIED'), ('UNSPECIFIED') ) ;
#2 = AXIS2_PLACEMENT_3D ( 'NONE', #261, #114, #32 ) ;
#3 = EDGE_LOOP ( 'NONE', ( #4 ) ) ;
#4 = ORIENTED_EDGE ( 'NONE', *, *, #146, .F. ) ;
#5 = ORIENTED_EDGE ( 'NONE', *, *, #125, .F. ) ;
#6 = AXIS2_PLACEMENT_3D ( 'NONE', #173, #49, #74 ) ;
#7 = MANIFOLD_SOLID_BREP ( 'Corps-Déplacer/Copier1[1]', #113 ) ;
#8 = CC_DESIGN_APPROVAL ( #180, ( #44 ) ) ;
#9 = PERSON_AND_ORGANIZATION ( #1, #16 ) ;
#10 = FACE_OUTER_BOUND ( 'NONE', #43, .T. ) ;
#11 = VERTEX_POINT ( 'NONE', #258 ) ;
#12 = APPROVAL_DATE_TIME ( #109, #229 ) ;
#13 = EDGE_CURVE ( 'NONE', #11, #11, #210, .T. ) ;
#14 = CYLINDRICAL_SURFACE ( 'NONE', #165, 2.449999999999976641 ) ;
#15 = DIRECTION ( 'NONE',  ( 0.0000000000000000000, 1.000000000000000000, 0.0000000000000000000 ) ) ;
#16 = ORGANIZATION ( 'UNSPECIFIED', 'UNSPECIFIED', '' ) ;
#17 = DIRECTION ( 'NONE',  ( -3.491481338843133355E-15, -1.224646799147354045E-15, -1.000000000000000000 ) ) ;
#18 = APPLICATION_PROTOCOL_DEFINITION ( 'international standard', 'config_control_design', 1994, #93 ) ;
#19 = FACE_OUTER_BOUND ( 'NONE', #62, .T. ) ;
#20 = CARTESIAN_POINT ( 'NONE',  ( 2.478050797627865241E-15, 8.691832156390792620E-16, 0.7097419568190910244 ) ) ;
#21 = CARTESIAN_POINT ( 'NONE',  ( 2.478050797627856564E-15, 1.949999999999999734, 0.7097419568190886929 ) ) ;
#22 = DIRECTION ( 'NONE',  ( -4.275831445896958607E-31, -1.000000000000000000, -1.224646799147353207E-16 ) ) ;
#23 = EDGE_CURVE ( 'NONE', #91, #91, #144, .T. ) ;
#24 = AXIS2_PLACEMENT_3D ( 'NONE', #175, #97, #254 ) ;
#25 = AXIS2_PLACEMENT_3D ( 'NONE', #20, #249, #189 ) ;
#26 = ADVANCED_FACE ( 'NONE', ( #10, #30 ), #68, .T. ) ;
#27 = ORIENTED_EDGE ( 'NONE', *, *, #13, .T. ) ;
#28 = DIRECTION ( 'NONE',  ( 0.0000000000000000000, -1.000000000000000000, 0.0000000000000000000 ) ) ;
#29 = ADVANCED_FACE ( 'NONE', ( #35 ), #179, .T. ) ;
#30 = FACE_OUTER_BOUND ( 'NONE', #245, .T. ) ;
#31 = CALENDAR_DATE ( 2021, 15, 10 ) ;
#32 = DIRECTION ( 'NONE',  ( -4.275831445896958607E-31, -1.000000000000000000, -1.224646799147353207E-16 ) ) ;
#33 = APPROVAL_STATUS ( 'not_yet_approved' ) ;
#34 = PRODUCT_DEFINITION ( 'UNKNOWN', '', #209, #158 ) ;
#35 = FACE_OUTER_BOUND ( 'NONE', #103, .T. ) ;
#36 = PERSON_AND_ORGANIZATION ( #1, #16 ) ;
#37 = CALENDAR_DATE ( 2021, 15, 10 ) ;
#38 = PLANE ( 'NONE',  #2 ) ;
#39 = PERSON_AND_ORGANIZATION_ROLE ( 'classification_officer' ) ;
#40 = CARTESIAN_POINT ( 'NONE',  ( 1.047444401652940007E-13, 2.249639673992777927E-32, 30.00000000000000000 ) ) ;
#41 = EDGE_CURVE ( 'NONE', #169, #169, #257, .T. ) ;
#42 = CONICAL_SURFACE ( 'NONE', #196, 3.499999999999950706, 0.5235987755982973724 ) ;
#43 = EDGE_LOOP ( 'NONE', ( #84 ) ) ;
#44 = SECURITY_CLASSIFICATION ( '', '', #236 ) ;
#45 = EDGE_LOOP ( 'NONE', ( #145 ) ) ;
#46 = ADVANCED_FACE ( 'NONE', ( #110, #89 ), #14, .T. ) ;
#47 = AXIS2_PLACEMENT_3D ( 'NONE', #212, #232, #153 ) ;
#48 = CIRCLE ( 'NONE', #205, 3.000000000000000000 ) ;
#49 = DIRECTION ( 'NONE',  ( 3.491481338843133355E-15, 1.224646799147354045E-15, 1.000000000000000000 ) ) ;
#50 = DIRECTION ( 'NONE',  ( 0.0000000000000000000, 0.0000000000000000000, 1.000000000000000000 ) ) ;
#51 = CARTESIAN_POINT ( 'NONE',  ( 1.047444401652940007E-13, 3.673940397442062649E-14, 30.00000000000000000 ) ) ;
#52 = CARTESIAN_POINT ( 'NONE',  ( 1.187103655206665341E-13, 4.163799117101004504E-14, 34.00000000000000000 ) ) ;
#53 = CALENDAR_DATE ( 2021, 15, 10 ) ;
#54 = CARTESIAN_POINT ( 'NONE',  ( 1.047444401652940007E-13, -2.449999999999939782, 30.00000000000000000 ) ) ;
#55 = CONICAL_SURFACE ( 'NONE', #6, 2.449999999999998401, 1.082104136236484937 ) ;
#56 = EDGE_LOOP ( 'NONE', ( #83 ) ) ;
#57 = VERTEX_POINT ( 'NONE', #162 ) ;
#58 = CC_DESIGN_PERSON_AND_ORGANIZATION_ASSIGNMENT ( #247, #69, ( #124 ) ) ;
#59 = FACE_OUTER_BOUND ( 'NONE', #182, .T. ) ;
#60 = ORIENTED_EDGE ( 'NONE', *, *, #23, .T. ) ;
#61 = EDGE_LOOP ( 'NONE', ( #143 ) ) ;
#62 = EDGE_LOOP ( 'NONE', ( #228 ) ) ;
#63 = EDGE_CURVE ( 'NONE', #238, #238, #66, .T. ) ;
#64 = LOCAL_TIME ( 11, 34, 9.000000000000000000, #211 ) ;
#65 = EDGE_LOOP ( 'NONE', ( #186 ) ) ;
#66 = CIRCLE ( 'NONE', #105, 2.449999999999976641 ) ;
#67 = CALENDAR_DATE ( 2021, 15, 10 ) ;
#68 = CYLINDRICAL_SURFACE ( 'NONE', #140, 2.449999999999976641 ) ;
#69 = PERSON_AND_ORGANIZATION_ROLE ( 'design_owner' ) ;
#70 = APPROVAL_STATUS ( 'not_yet_approved' ) ;
#71 = FACE_OUTER_BOUND ( 'NONE', #208, .T. ) ;
#72 = CARTESIAN_POINT ( 'NONE',  ( -3.491481338843130200E-15, -1.224646799147353059E-15, -0.9999999999999991118 ) ) ;
#73 = CIRCLE ( 'NONE', #24, 2.449999999999998401 ) ;
#74 = DIRECTION ( 'NONE',  ( 4.244906816200441324E-30, -1.000000000000000000, 1.239088197126291655E-15 ) ) ;
#75 = PERSON_AND_ORGANIZATION_ROLE ( 'creator' ) ;
#76 = PERSON_AND_ORGANIZATION ( #1, #16 ) ;
#77 = VERTEX_POINT ( 'NONE', #161 ) ;
#78 = APPLICATION_CONTEXT ( 'configuration controlled 3d designs of mechanical parts and assemblies' ) ;
#79 = LOCAL_TIME ( 11, 34, 9.000000000000000000, #157 ) ;
#80 = CARTESIAN_POINT ( 'NONE',  ( 1.187103655206665341E-13, 2.449999999999996625, 34.00000000000000000 ) ) ;
#81 = AXIS2_PLACEMENT_3D ( 'NONE', #123, #104, #215 ) ;
#82 = ADVANCED_FACE ( 'NONE', ( #59, #231 ), #246, .T. ) ;
#83 = ORIENTED_EDGE ( 'NONE', *, *, #185, .F. ) ;
#84 = ORIENTED_EDGE ( 'NONE', *, *, #185, .T. ) ;
#85 = CC_DESIGN_APPROVAL ( #253, ( #209 ) ) ;
#86 = PERSON_AND_ORGANIZATION_ROLE ( 'design_supplier' ) ;
#87 = AXIS2_PLACEMENT_3D ( 'NONE', #136, #220, #216 ) ;
#88 = APPROVAL_PERSON_ORGANIZATION ( #170, #253, #255 ) ;
#89 = FACE_OUTER_BOUND ( 'NONE', #243, .T. ) ;
#90 = DIRECTION ( 'NONE',  ( -4.402125587170866446E-30, 1.000000000000000000, -1.239088197126302502E-15 ) ) ;
#91 = VERTEX_POINT ( 'NONE', #131 ) ;
#92 = MANIFOLD_SOLID_BREP ( 'Corps-Déplacer/Copier1[2]', #139 ) ;
#93 = APPLICATION_CONTEXT ( 'configuration controlled 3d designs of mechanical parts and assemblies' ) ;
#94 = COORDINATED_UNIVERSAL_TIME_OFFSET ( 1, 0, .AHEAD. ) ;
#95 = DIRECTION ( 'NONE',  ( -3.491481338843133355E-15, -1.224646799147354045E-15, -1.000000000000000000 ) ) ;
#96 = CARTESIAN_POINT ( 'NONE',  ( 2.279937314264566018E-13, 2.999999999999992450, 65.29999999999999716 ) ) ;
#97 = DIRECTION ( 'NONE',  ( -3.491481338843133355E-15, -1.224646799147354045E-15, -1.000000000000000000 ) ) ;
#98 = AXIS2_PLACEMENT_3D ( 'NONE', #40, #116, #22 ) ;
#99 = DIRECTION ( 'NONE',  ( 0.0000000000000000000, -1.000000000000000000, 0.0000000000000000000 ) ) ;
#100 = ORIENTED_EDGE ( 'NONE', *, *, #219, .F. ) ;
#101 = APPROVAL_PERSON_ORGANIZATION ( #9, #180, #126 ) ;
#102 = ORIENTED_EDGE ( 'NONE', *, *, #63, .T. ) ;
#103 = EDGE_LOOP ( 'NONE', ( #122 ) ) ;
#104 = DIRECTION ( 'NONE',  ( -3.491481338843133355E-15, 1.224646799147353207E-16, -1.000000000000000000 ) ) ;
#105 = AXIS2_PLACEMENT_3D ( 'NONE', #51, #222, #99 ) ;
#106 = PERSON_AND_ORGANIZATION ( #1, #16 ) ;
#107 = DIRECTION ( 'NONE',  ( 0.0000000000000000000, 1.000000000000000000, 0.0000000000000000000 ) ) ;
#108 = FACE_OUTER_BOUND ( 'NONE', #3, .T. ) ;
#109 = DATE_AND_TIME ( #259, #223 ) ;
#110 = FACE_OUTER_BOUND ( 'NONE', #260, .T. ) ;
#111 = FACE_OUTER_BOUND ( 'NONE', #121, .T. ) ;
#112 = DATE_AND_TIME ( #37, #227 ) ;
#113 = CLOSED_SHELL ( 'NONE', ( #188, #82, #138, #26, #263, #141 ) ) ;
#114 = DIRECTION ( 'NONE',  ( 3.491481338843133355E-15, -1.224646799147353207E-16, 1.000000000000000000 ) ) ;
#115 = DATE_AND_TIME ( #53, #79 ) ;
#116 = DIRECTION ( 'NONE',  ( 3.491481338843133355E-15, -1.224646799147353207E-16, 1.000000000000000000 ) ) ;
#117 = FACE_OUTER_BOUND ( 'NONE', #45, .T. ) ;
#118 = CC_DESIGN_DATE_AND_TIME_ASSIGNMENT ( #150, #233, ( #34 ) ) ;
#119 = LOCAL_TIME ( 11, 34, 9.000000000000000000, #160 ) ;
#120 = AXIS2_PLACEMENT_3D ( 'NONE', #52, #95, #15 ) ;
#121 = EDGE_LOOP ( 'NONE', ( #206 ) ) ;
#122 = ORIENTED_EDGE ( 'NONE', *, *, #41, .T. ) ;
#123 = CARTESIAN_POINT ( 'NONE',  ( 2.304377683636468267E-13, -8.082668874372532400E-15, 66.00000000000000000 ) ) ;
#124 = PRODUCT ( '62863', '62863', '', ( #135 ) ) ;
#125 = EDGE_CURVE ( 'NONE', #134, #134, #48, .T. ) ;
#126 = APPROVAL_ROLE ( '' ) ;
#127 = DIRECTION ( 'NONE',  ( -3.491481338843133355E-15, 1.224646799147353207E-16, -1.000000000000000000 ) ) ;
#128 = AXIS2_PLACEMENT_3D ( 'NONE', #198, #248, #107 ) ;
#129 = APPROVAL_ROLE ( '' ) ;
#130 =( NAMED_UNIT ( * ) PLANE_ANGLE_UNIT ( ) SI_UNIT ( $, .RADIAN. ) );
#131 = CARTESIAN_POINT ( 'NONE',  ( 2.304377683636468267E-13, 2.299999999999992273, 66.00000000000000000 ) ) ;
#132 = DATE_TIME_ROLE ( 'classification_date' ) ;
#133 = CARTESIAN_POINT ( 'NONE',  ( -3.491481338843130200E-15, -1.224646799147353059E-15, -0.9999999999999991118 ) ) ;
#134 = VERTEX_POINT ( 'NONE', #96 ) ;
#135 = MECHANICAL_CONTEXT ( 'NONE', #78, 'mechanical' ) ;
#136 = CARTESIAN_POINT ( 'NONE',  ( 1.220364482105720034E-13, 4.280462393360754004E-14, 34.95262794416296259 ) ) ;
#137 =( NAMED_UNIT ( * ) SI_UNIT ( $, .STERADIAN. ) SOLID_ANGLE_UNIT ( ) );
#138 = ADVANCED_FACE ( 'NONE', ( #19 ), #251, .F. ) ;
#139 = CLOSED_SHELL ( 'NONE', ( #242, #29, #237, #46 ) ) ;
#140 = AXIS2_PLACEMENT_3D ( 'NONE', #133, #193, #90 ) ;
#141 = ADVANCED_FACE ( 'NONE', ( #71 ), #201, .F. ) ;
#142 = ORIENTED_EDGE ( 'NONE', *, *, #41, .F. ) ;
#143 = ORIENTED_EDGE ( 'NONE', *, *, #146, .T. ) ;
#144 = CIRCLE ( 'NONE', #81, 2.300000000000000266 ) ;
#145 = ORIENTED_EDGE ( 'NONE', *, *, #219, .T. ) ;
#146 = EDGE_CURVE ( 'NONE', #77, #77, #156, .T. ) ;
#147 = PERSON_AND_ORGANIZATION ( #1, #16 ) ;
#148 = PRODUCT_RELATED_PRODUCT_CATEGORY ( 'detail', '', ( #124 ) ) ;
#149 = DIRECTION ( 'NONE',  ( -4.345688079642996235E-30, 1.000000000000000000, -1.223202451009287762E-15 ) ) ;
#150 = DATE_AND_TIME ( #67, #119 ) ;
#151 = DIRECTION ( 'NONE',  ( -3.491481338843133355E-15, -1.224646799147354045E-15, -1.000000000000000000 ) ) ;
#152 = CC_DESIGN_PERSON_AND_ORGANIZATION_ASSIGNMENT ( #147, #86, ( #209 ) ) ;
#153 = DIRECTION ( 'NONE',  ( 4.275831445896958607E-31, 1.000000000000000000, 1.224646799147353454E-16 ) ) ;
#154 = COORDINATED_UNIVERSAL_TIME_OFFSET ( 1, 0, .AHEAD. ) ;
#155 = DIRECTION ( 'NONE',  ( -4.402125587170866446E-30, 1.000000000000000000, -1.239088197126302502E-15 ) ) ;
#156 = CIRCLE ( 'NONE', #87, 2.999999999999997780 ) ;
#157 = COORDINATED_UNIVERSAL_TIME_OFFSET ( 1, 0, .AHEAD. ) ;
#158 = DESIGN_CONTEXT ( 'detailed design', #93, 'design' ) ;
#159 = FACE_OUTER_BOUND ( 'NONE', #61, .T. ) ;
#160 = COORDINATED_UNIVERSAL_TIME_OFFSET ( 1, 0, .AHEAD. ) ;
#161 = CARTESIAN_POINT ( 'NONE',  ( 1.220364482105720287E-13, -2.999999999999955147, 34.95262794416296970 ) ) ;
#162 = CARTESIAN_POINT ( 'NONE',  ( 3.406277576794323931E-15, 2.449999999999999734, 0.9755966726498268571 ) ) ;
#163 = DIRECTION ( 'NONE',  ( -3.491481338843133355E-15, 1.224646799147353207E-16, -1.000000000000000000 ) ) ;
#164 = CC_DESIGN_PERSON_AND_ORGANIZATION_ASSIGNMENT ( #106, #239, ( #34 ) ) ;
#165 = AXIS2_PLACEMENT_3D ( 'NONE', #72, #17, #155 ) ;
#166 =( GEOMETRIC_REPRESENTATION_CONTEXT ( 3 ) GLOBAL_UNCERTAINTY_ASSIGNED_CONTEXT ( ( #256 ) ) GLOBAL_UNIT_ASSIGNED_CONTEXT ( ( #241, #130, #137 ) ) REPRESENTATION_CONTEXT ( 'NONE', 'WORKASPACE' ) );
#167 = CARTESIAN_POINT ( 'NONE',  ( 0.0000000000000000000, 0.0000000000000000000, 0.0000000000000000000 ) ) ;
#168 = CARTESIAN_POINT ( 'NONE',  ( 2.478050797627865241E-15, 8.691832156390792620E-16, 0.7097419568190910244 ) ) ;
#169 = VERTEX_POINT ( 'NONE', #21 ) ;
#170 = PERSON_AND_ORGANIZATION ( #1, #16 ) ;
#171 = DIRECTION ( 'NONE',  ( 4.275831445896958607E-31, 1.000000000000000000, 1.224646799147353207E-16 ) ) ;
#172 = CYLINDRICAL_SURFACE ( 'NONE', #47, 2.999999999999997780 ) ;
#173 = CARTESIAN_POINT ( 'NONE',  ( 3.406277576794334580E-15, 1.194761342419423250E-15, 0.9755966726498299657 ) ) ;
#174 = CARTESIAN_POINT ( 'NONE',  ( 2.304377683636468267E-13, 1.724723750061123933E-32, 66.00000000000000000 ) ) ;
#175 = CARTESIAN_POINT ( 'NONE',  ( 3.406277576794334580E-15, 1.194761342419423250E-15, 0.9755966726498299657 ) ) ;
#176 = APPROVAL_DATE_TIME ( #250, #180 ) ;
#177 = CC_DESIGN_DATE_AND_TIME_ASSIGNMENT ( #115, #132, ( #44 ) ) ;
#178 = AXIS2_PLACEMENT_3D ( 'NONE', #167, #50, #195 ) ;
#179 = CONICAL_SURFACE ( 'NONE', #25, 1.949999999999998845, 1.221730476396032161 ) ;
#180 = APPROVAL ( #200, 'UNSPECIFIED' ) ;
#181 = VERTEX_POINT ( 'NONE', #80 ) ;
#182 = EDGE_LOOP ( 'NONE', ( #5 ) ) ;
#183 = EDGE_LOOP ( 'NONE', ( #60 ) ) ;
#184 = CARTESIAN_POINT ( 'NONE',  ( 1.047444401652940007E-13, 3.673940397442062649E-14, 30.00000000000000000 ) ) ;
#185 = EDGE_CURVE ( 'NONE', #181, #181, #234, .T. ) ;
#186 = ORIENTED_EDGE ( 'NONE', *, *, #13, .F. ) ;
#187 = AXIS2_PLACEMENT_3D ( 'NONE', #174, #127, #171 ) ;
#188 = ADVANCED_FACE ( 'NONE', ( #159, #111 ), #172, .T. ) ;
#189 = DIRECTION ( 'NONE',  ( 4.345688079642996235E-30, -1.000000000000000000, 1.223202451009287762E-15 ) ) ;
#190 = APPROVAL_DATE_TIME ( #112, #253 ) ;
#191 = DIRECTION ( 'NONE',  ( -3.491481338843133355E-15, 1.224646799147353207E-16, -1.000000000000000000 ) ) ;
#192 = DIRECTION ( 'NONE',  ( 7.043400939473419384E-30, -1.000000000000000000, 1.982541115402093312E-15 ) ) ;
#193 = DIRECTION ( 'NONE',  ( -3.491481338843133355E-15, -1.224646799147354045E-15, -1.000000000000000000 ) ) ;
#194 = CARTESIAN_POINT ( 'NONE',  ( 1.250601597468491796E-13, 4.386519917233235076E-14, 35.81865334794732547 ) ) ;
#195 = DIRECTION ( 'NONE',  ( 1.000000000000000000, 0.0000000000000000000, 0.0000000000000000000 ) ) ;
#196 = AXIS2_PLACEMENT_3D ( 'NONE', #194, #202, #192 ) ;
#197 = AXIS2_PLACEMENT_3D ( 'NONE', #184, #163, #28 ) ;
#198 = CARTESIAN_POINT ( 'NONE',  ( 2.304377683636468267E-13, -8.082668874372532400E-15, 66.00000000000000000 ) ) ;
#199 = FACE_OUTER_BOUND ( 'NONE', #65, .T. ) ;
#200 = APPROVAL_STATUS ( 'not_yet_approved' ) ;
#201 = PLANE ( 'NONE',  #98 ) ;
#202 = DIRECTION ( 'NONE',  ( 3.491481338843133355E-15, 1.224646799147354045E-15, 1.000000000000000000 ) ) ;
#203 = APPROVAL_PERSON_ORGANIZATION ( #218, #229, #129 ) ;
#204 = CC_DESIGN_PERSON_AND_ORGANIZATION_ASSIGNMENT ( #36, #75, ( #209 ) ) ;
#205 = AXIS2_PLACEMENT_3D ( 'NONE', #235, #191, #252 ) ;
#206 = ORIENTED_EDGE ( 'NONE', *, *, #125, .T. ) ;
#207 = CC_DESIGN_PERSON_AND_ORGANIZATION_ASSIGNMENT ( #76, #39, ( #44 ) ) ;
#208 = EDGE_LOOP ( 'NONE', ( #102 ) ) ;
#209 = PRODUCT_DEFINITION_FORMATION_WITH_SPECIFIED_SOURCE ( 'ANY', '', #124, .NOT_KNOWN. ) ;
#210 = CIRCLE ( 'NONE', #197, 2.449999999999976641 ) ;
#211 = COORDINATED_UNIVERSAL_TIME_OFFSET ( 1, 0, .AHEAD. ) ;
#212 = CARTESIAN_POINT ( 'NONE',  ( 0.0000000000000000000, 0.0000000000000000000, 0.0000000000000000000 ) ) ;
#213 = APPLICATION_PROTOCOL_DEFINITION ( 'international standard', 'config_control_design', 1994, #78 ) ;
#214 = ADVANCED_BREP_SHAPE_REPRESENTATION ( '62863', ( #7, #92, #178 ), #166 ) ;
#215 = DIRECTION ( 'NONE',  ( 0.0000000000000000000, 1.000000000000000000, 0.0000000000000000000 ) ) ;
#216 = DIRECTION ( 'NONE',  ( 8.217301096052212846E-30, -1.000000000000000000, 2.312964634635744633E-15 ) ) ;
#217 = FACE_BOUND ( 'NONE', #226, .T. ) ;
#218 = PERSON_AND_ORGANIZATION ( #1, #16 ) ;
#219 = EDGE_CURVE ( 'NONE', #57, #57, #73, .T. ) ;
#220 = DIRECTION ( 'NONE',  ( 3.491481338843133355E-15, 1.224646799147354045E-15, 1.000000000000000000 ) ) ;
#221 = FACE_BOUND ( 'NONE', #56, .T. ) ;
#222 = DIRECTION ( 'NONE',  ( -3.491481338843133355E-15, 1.224646799147353207E-16, -1.000000000000000000 ) ) ;
#223 = LOCAL_TIME ( 11, 34, 9.000000000000000000, #94 ) ;
#224 = AXIS2_PLACEMENT_3D ( 'NONE', #168, #151, #149 ) ;
#225 = PRODUCT_DEFINITION_SHAPE ( 'NONE', 'NONE',  #34 ) ;
#226 = EDGE_LOOP ( 'NONE', ( #142 ) ) ;
#227 = LOCAL_TIME ( 11, 34, 9.000000000000000000, #154 ) ;
#228 = ORIENTED_EDGE ( 'NONE', *, *, #23, .F. ) ;
#229 = APPROVAL ( #33, 'UNSPECIFIED' ) ;
#230 = CC_DESIGN_SECURITY_CLASSIFICATION ( #44, ( #209 ) ) ;
#231 = FACE_BOUND ( 'NONE', #183, .T. ) ;
#232 = DIRECTION ( 'NONE',  ( -3.491481338843133355E-15, 1.224646799147353207E-16, -1.000000000000000000 ) ) ;
#233 = DATE_TIME_ROLE ( 'creation_date' ) ;
#234 = CIRCLE ( 'NONE', #120, 2.449999999999954881 ) ;
#235 = CARTESIAN_POINT ( 'NONE',  ( 2.279937314264566018E-13, -7.996943598432214956E-15, 65.29999999999999716 ) ) ;
#236 = SECURITY_CLASSIFICATION_LEVEL ( 'unclassified' ) ;
#237 = ADVANCED_FACE ( 'NONE', ( #217, #117 ), #55, .T. ) ;
#238 = VERTEX_POINT ( 'NONE', #54 ) ;
#239 = PERSON_AND_ORGANIZATION_ROLE ( 'creator' ) ;
#240 = CC_DESIGN_APPROVAL ( #229, ( #34 ) ) ;
#241 =( LENGTH_UNIT ( ) NAMED_UNIT ( * ) SI_UNIT ( .MILLI., .METRE. ) );
#242 = ADVANCED_FACE ( 'NONE', ( #199 ), #38, .T. ) ;
#243 = EDGE_LOOP ( 'NONE', ( #100 ) ) ;
#244 = ORIENTED_EDGE ( 'NONE', *, *, #63, .F. ) ;
#245 = EDGE_LOOP ( 'NONE', ( #244 ) ) ;
#246 = CONICAL_SURFACE ( 'NONE', #128, 2.300000000000000266, 0.7853981633974437271 ) ;
#247 = PERSON_AND_ORGANIZATION ( #1, #16 ) ;
#248 = DIRECTION ( 'NONE',  ( -3.491481338843133355E-15, 1.224646799147353207E-16, -1.000000000000000000 ) ) ;
#249 = DIRECTION ( 'NONE',  ( 3.491481338843133355E-15, 1.224646799147354045E-15, 1.000000000000000000 ) ) ;
#250 = DATE_AND_TIME ( #31, #64 ) ;
#251 = PLANE ( 'NONE',  #187 ) ;
#252 = DIRECTION ( 'NONE',  ( 0.0000000000000000000, 1.000000000000000000, 0.0000000000000000000 ) ) ;
#253 = APPROVAL ( #70, 'UNSPECIFIED' ) ;
#254 = DIRECTION ( 'NONE',  ( -4.244906816200441324E-30, 1.000000000000000000, -1.239088197126291655E-15 ) ) ;
#255 = APPROVAL_ROLE ( '' ) ;
#256 = UNCERTAINTY_MEASURE_WITH_UNIT (LENGTH_MEASURE( 1.000000000000000082E-05 ), #241, 'distance_accuracy_value', 'NONE');
#257 = CIRCLE ( 'NONE', #224, 1.949999999999998845 ) ;
#258 = CARTESIAN_POINT ( 'NONE',  ( 1.047444401652940007E-13, -2.449999999999939782, 30.00000000000000000 ) ) ;
#259 = CALENDAR_DATE ( 2021, 15, 10 ) ;
#260 = EDGE_LOOP ( 'NONE', ( #27 ) ) ;
#261 = CARTESIAN_POINT ( 'NONE',  ( 1.047444401652940007E-13, 2.249639673992777927E-32, 30.00000000000000000 ) ) ;
#262 = SHAPE_DEFINITION_REPRESENTATION ( #225, #214 ) ;
#263 = ADVANCED_FACE ( 'NONE', ( #221, #108 ), #42, .T. ) ;
ENDSEC;
END-ISO-10303-21;
