ISO-10303-21;
HEADER;
FILE_DESCRIPTION (( 'STEP AP203' ),
    '1' );
FILE_NAME ('62862.step',
    '2021-10-15T09:34:08',
    ( '' ),
    ( '' ),
    'SwSTEP 2.0',
    'SolidWorks 2019',
    '' );
FILE_SCHEMA (( 'CONFIG_CONTROL_DESIGN' ));
ENDSEC;

DATA;
#1 = ORIENTED_EDGE ( 'NONE', *, *, #154, .T. ) ;
#2 = APPROVAL_ROLE ( '' ) ;
#3 = CARTESIAN_POINT ( 'NONE',  ( 1.047444401652940007E-13, 2.249639673992777927E-32, 30.00000000000000000 ) ) ;
#4 = DIRECTION ( 'NONE',  ( 3.491481338843133355E-15, 1.224646799147354045E-15, 1.000000000000000000 ) ) ;
#5 = EDGE_LOOP ( 'NONE', ( #72 ) ) ;
#6 = DIRECTION ( 'NONE',  ( -3.491481338843133355E-15, -1.224646799147354045E-15, -1.000000000000000000 ) ) ;
#7 = ORIENTED_EDGE ( 'NONE', *, *, #247, .F. ) ;
#8 = CARTESIAN_POINT ( 'NONE',  ( 2.279937314264566018E-13, -7.996943598432214956E-15, 65.29999999999999716 ) ) ;
#9 = CIRCLE ( 'NONE', #39, 1.899999999999999023 ) ;
#10 = APPLICATION_CONTEXT ( 'configuration controlled 3d designs of mechanical parts and assemblies' ) ;
#11 = AXIS2_PLACEMENT_3D ( 'NONE', #194, #258, #13 ) ;
#12 = DIRECTION ( 'NONE',  ( -4.275831445896958607E-31, -1.000000000000000000, -1.224646799147353207E-16 ) ) ;
#13 = DIRECTION ( 'NONE',  ( 0.0000000000000000000, 1.000000000000000000, 0.0000000000000000000 ) ) ;
#14 = APPROVAL_PERSON_ORGANIZATION ( #89, #213, #73 ) ;
#15 = DESIGN_CONTEXT ( 'detailed design', #10, 'design' ) ;
#16 = PLANE ( 'NONE',  #52 ) ;
#17 = EDGE_CURVE ( 'NONE', #144, #144, #49, .T. ) ;
#18 = CARTESIAN_POINT ( 'NONE',  ( 2.414511033586116783E-15, 1.899999999999999689, 0.6915434451057786980 ) ) ;
#19 = APPLICATION_CONTEXT ( 'configuration controlled 3d designs of mechanical parts and assemblies' ) ;
#20 = CC_DESIGN_APPROVAL ( #180, ( #40 ) ) ;
#21 = ORIENTED_EDGE ( 'NONE', *, *, #17, .F. ) ;
#22 = PERSON_AND_ORGANIZATION_ROLE ( 'creator' ) ;
#23 = FACE_OUTER_BOUND ( 'NONE', #35, .T. ) ;
#24 = DATE_AND_TIME ( #240, #253 ) ;
#25 = DIRECTION ( 'NONE',  ( -4.257318824434944477E-30, 1.000000000000000000, -1.198328716957663377E-15 ) ) ;
#26 = FACE_OUTER_BOUND ( 'NONE', #210, .T. ) ;
#27 = DIRECTION ( 'NONE',  ( 8.217301096052212846E-30, -1.000000000000000000, 2.312964634635744633E-15 ) ) ;
#28 = CONICAL_SURFACE ( 'NONE', #32, 2.300000000000000266, 0.7853981633974437271 ) ;
#29 = VERTEX_POINT ( 'NONE', #102 ) ;
#30 = EDGE_LOOP ( 'NONE', ( #48 ) ) ;
#31 = PRODUCT_RELATED_PRODUCT_CATEGORY ( 'detail', '', ( #148 ) ) ;
#32 = AXIS2_PLACEMENT_3D ( 'NONE', #41, #223, #245 ) ;
#33 = DIRECTION ( 'NONE',  ( 4.275831445896958607E-31, 1.000000000000000000, 1.224646799147353454E-16 ) ) ;
#34 = CC_DESIGN_PERSON_AND_ORGANIZATION_ASSIGNMENT ( #83, #120, ( #99 ) ) ;
#35 = EDGE_LOOP ( 'NONE', ( #96 ) ) ;
#36 = PERSON_AND_ORGANIZATION ( #124, #256 ) ;
#37 = FACE_OUTER_BOUND ( 'NONE', #224, .T. ) ;
#38 = VERTEX_POINT ( 'NONE', #58 ) ;
#39 = AXIS2_PLACEMENT_3D ( 'NONE', #92, #46, #25 ) ;
#40 = SECURITY_CLASSIFICATION ( '', '', #220 ) ;
#41 = CARTESIAN_POINT ( 'NONE',  ( 2.304377683636468267E-13, -8.082668874372532400E-15, 66.00000000000000000 ) ) ;
#42 = PERSON_AND_ORGANIZATION_ROLE ( 'creator' ) ;
#43 = CARTESIAN_POINT ( 'NONE',  ( 1.187103655206665341E-13, 2.380999999999995342, 34.00000000000000000 ) ) ;
#44 = PRODUCT_DEFINITION_SHAPE ( 'NONE', 'NONE',  #196 ) ;
#45 = EDGE_LOOP ( 'NONE', ( #150 ) ) ;
#46 = DIRECTION ( 'NONE',  ( -3.491481338843133355E-15, -1.224646799147354045E-15, -1.000000000000000000 ) ) ;
#47 = CARTESIAN_POINT ( 'NONE',  ( 2.304377683636468267E-13, -8.082668874372532400E-15, 66.00000000000000000 ) ) ;
#48 = ORIENTED_EDGE ( 'NONE', *, *, #94, .F. ) ;
#49 = CIRCLE ( 'NONE', #147, 3.000000000000000000 ) ;
#50 = ADVANCED_FACE ( 'NONE', ( #187 ), #252, .T. ) ;
#51 = CC_DESIGN_APPROVAL ( #213, ( #196 ) ) ;
#52 = AXIS2_PLACEMENT_3D ( 'NONE', #95, #181, #78 ) ;
#53 = CC_DESIGN_PERSON_AND_ORGANIZATION_ASSIGNMENT ( #168, #62, ( #40 ) ) ;
#54 = PLANE ( 'NONE',  #212 ) ;
#55 = APPROVAL ( #110, 'UNSPECIFIED' ) ;
#56 = CIRCLE ( 'NONE', #11, 2.380999999999954042 ) ;
#57 = DATE_TIME_ROLE ( 'classification_date' ) ;
#58 = CARTESIAN_POINT ( 'NONE',  ( 1.047444401652940007E-13, -2.380999999999938943, 30.00000000000000000 ) ) ;
#59 = FACE_OUTER_BOUND ( 'NONE', #69, .T. ) ;
#60 = ADVANCED_FACE ( 'NONE', ( #193, #233 ), #195, .T. ) ;
#61 = FACE_BOUND ( 'NONE', #248, .T. ) ;
#62 = PERSON_AND_ORGANIZATION_ROLE ( 'classification_officer' ) ;
#63 = DIRECTION ( 'NONE',  ( -4.275831445896958607E-31, -1.000000000000000000, -1.224646799147353207E-16 ) ) ;
#64 = CLOSED_SHELL ( 'NONE', ( #143, #70, #76, #216, #60, #190 ) ) ;
#65 = DATE_AND_TIME ( #185, #200 ) ;
#66 = CYLINDRICAL_SURFACE ( 'NONE', #260, 2.380999999999975802 ) ;
#67 = EDGE_LOOP ( 'NONE', ( #7 ) ) ;
#68 = CARTESIAN_POINT ( 'NONE',  ( 3.307465195144255995E-15, 2.380999999999999783, 0.9472956817349482694 ) ) ;
#69 = EDGE_LOOP ( 'NONE', ( #132 ) ) ;
#70 = ADVANCED_FACE ( 'NONE', ( #242, #61 ), #28, .T. ) ;
#71 =( GEOMETRIC_REPRESENTATION_CONTEXT ( 3 ) GLOBAL_UNCERTAINTY_ASSIGNED_CONTEXT ( ( #161 ) ) GLOBAL_UNIT_ASSIGNED_CONTEXT ( ( #80, #171, #121 ) ) REPRESENTATION_CONTEXT ( 'NONE', 'WORKASPACE' ) );
#72 = ORIENTED_EDGE ( 'NONE', *, *, #209, .F. ) ;
#73 = APPROVAL_ROLE ( '' ) ;
#74 = AXIS2_PLACEMENT_3D ( 'NONE', #169, #6, #149 ) ;
#75 = CARTESIAN_POINT ( 'NONE',  ( 3.307465195144266250E-15, 1.160102624482818430E-15, 0.9472956817349511560 ) ) ;
#76 = ADVANCED_FACE ( 'NONE', ( #26 ), #16, .F. ) ;
#77 = LOCAL_TIME ( 11, 34, 8.000000000000000000, #142 ) ;
#78 = DIRECTION ( 'NONE',  ( 4.275831445896958607E-31, 1.000000000000000000, 1.224646799147353207E-16 ) ) ;
#79 = COORDINATED_UNIVERSAL_TIME_OFFSET ( 1, 0, .AHEAD. ) ;
#80 =( LENGTH_UNIT ( ) NAMED_UNIT ( * ) SI_UNIT ( .MILLI., .METRE. ) );
#81 = AXIS2_PLACEMENT_3D ( 'NONE', #119, #197, #33 ) ;
#82 = CARTESIAN_POINT ( 'NONE',  ( 1.047444401652940007E-13, 3.673940397442062649E-14, 30.00000000000000000 ) ) ;
#83 = PERSON_AND_ORGANIZATION ( #124, #256 ) ;
#84 = DIRECTION ( 'NONE',  ( -3.491481338843133355E-15, 1.224646799147353207E-16, -1.000000000000000000 ) ) ;
#85 = APPROVAL_DATE_TIME ( #24, #55 ) ;
#86 = DIRECTION ( 'NONE',  ( 4.206146875604214361E-30, -1.000000000000000000, 1.229460674385075372E-15 ) ) ;
#87 = DIRECTION ( 'NONE',  ( 4.257318824434944477E-30, -1.000000000000000000, 1.198328716957663377E-15 ) ) ;
#88 = ORIENTED_EDGE ( 'NONE', *, *, #91, .F. ) ;
#89 = PERSON_AND_ORGANIZATION ( #124, #256 ) ;
#90 = AXIS2_PLACEMENT_3D ( 'NONE', #244, #4, #27 ) ;
#91 = EDGE_CURVE ( 'NONE', #174, #174, #156, .T. ) ;
#92 = CARTESIAN_POINT ( 'NONE',  ( 2.414511033586125066E-15, 8.468964665201285167E-16, 0.6915434451057810294 ) ) ;
#93 = AXIS2_PLACEMENT_3D ( 'NONE', #82, #84, #151 ) ;
#94 = EDGE_CURVE ( 'NONE', #249, #249, #56, .T. ) ;
#95 = CARTESIAN_POINT ( 'NONE',  ( 2.304377683636468267E-13, 1.724723750061123933E-32, 66.00000000000000000 ) ) ;
#96 = ORIENTED_EDGE ( 'NONE', *, *, #209, .T. ) ;
#97 = PLANE ( 'NONE',  #208 ) ;
#98 = AXIS2_PLACEMENT_3D ( 'NONE', #111, #136, #118 ) ;
#99 = PRODUCT_DEFINITION_FORMATION_WITH_SPECIFIED_SOURCE ( 'ANY', '', #148, .NOT_KNOWN. ) ;
#100 = ADVANCED_FACE ( 'NONE', ( #215 ), #54, .T. ) ;
#101 = PERSON_AND_ORGANIZATION ( #124, #256 ) ;
#102 = CARTESIAN_POINT ( 'NONE',  ( 1.047444401652940007E-13, -2.380999999999938943, 30.00000000000000000 ) ) ;
#103 = APPROVAL_DATE_TIME ( #173, #213 ) ;
#104 = CARTESIAN_POINT ( 'NONE',  ( 1.224537204025783230E-13, -2.999999999999955147, 35.07213944988522059 ) ) ;
#105 = DIRECTION ( 'NONE',  ( -3.491481338843133355E-15, 1.224646799147353207E-16, -1.000000000000000000 ) ) ;
#106 = CYLINDRICAL_SURFACE ( 'NONE', #74, 2.380999999999975802 ) ;
#107 = CC_DESIGN_DATE_AND_TIME_ASSIGNMENT ( #221, #164, ( #196 ) ) ;
#108 = CIRCLE ( 'NONE', #90, 2.999999999999997780 ) ;
#109 = CARTESIAN_POINT ( 'NONE',  ( 2.414511033586125066E-15, 8.468964665201285167E-16, 0.6915434451057810294 ) ) ;
#110 = APPROVAL_STATUS ( 'not_yet_approved' ) ;
#111 = CARTESIAN_POINT ( 'NONE',  ( 1.254774319388554991E-13, 4.401155855527638636E-14, 35.93816485366957636 ) ) ;
#112 = DIRECTION ( 'NONE',  ( 0.0000000000000000000, 0.0000000000000000000, 1.000000000000000000 ) ) ;
#113 = DIRECTION ( 'NONE',  ( -3.491481338843133355E-15, 1.224646799147353207E-16, -1.000000000000000000 ) ) ;
#114 = EDGE_LOOP ( 'NONE', ( #21 ) ) ;
#115 = DIRECTION ( 'NONE',  ( 0.0000000000000000000, 1.000000000000000000, 0.0000000000000000000 ) ) ;
#116 = CIRCLE ( 'NONE', #218, 2.380999999999975802 ) ;
#117 = CC_DESIGN_APPROVAL ( #55, ( #99 ) ) ;
#118 = DIRECTION ( 'NONE',  ( 7.043400939473419384E-30, -1.000000000000000000, 1.982541115402093312E-15 ) ) ;
#119 = CARTESIAN_POINT ( 'NONE',  ( 0.0000000000000000000, 0.0000000000000000000, 0.0000000000000000000 ) ) ;
#120 = PERSON_AND_ORGANIZATION_ROLE ( 'design_supplier' ) ;
#121 =( NAMED_UNIT ( * ) SI_UNIT ( $, .STERADIAN. ) SOLID_ANGLE_UNIT ( ) );
#122 = CC_DESIGN_PERSON_AND_ORGANIZATION_ASSIGNMENT ( #229, #42, ( #99 ) ) ;
#123 = CARTESIAN_POINT ( 'NONE',  ( 2.304377683636468267E-13, 2.299999999999992273, 66.00000000000000000 ) ) ;
#124 = PERSON ( 'UNSPECIFIED', 'UNSPECIFIED', 'UNSPECIFIED', ('UNSPECIFIED'), ('UNSPECIFIED'), ('UNSPECIFIED') ) ;
#125 = EDGE_LOOP ( 'NONE', ( #1 ) ) ;
#126 = MANIFOLD_SOLID_BREP ( 'Corps-Déplacer/Copier1[1]', #64 ) ;
#127 = APPROVAL_STATUS ( 'not_yet_approved' ) ;
#128 = VERTEX_POINT ( 'NONE', #68 ) ;
#129 = DIRECTION ( 'NONE',  ( 1.000000000000000000, 0.0000000000000000000, 0.0000000000000000000 ) ) ;
#130 = DATE_AND_TIME ( #225, #257 ) ;
#131 = DIRECTION ( 'NONE',  ( 3.491481338843133355E-15, -1.224646799147353207E-16, 1.000000000000000000 ) ) ;
#132 = ORIENTED_EDGE ( 'NONE', *, *, #238, .F. ) ;
#133 = COORDINATED_UNIVERSAL_TIME_OFFSET ( 1, 0, .AHEAD. ) ;
#134 = CARTESIAN_POINT ( 'NONE',  ( 3.307465195144266250E-15, 1.160102624482818430E-15, 0.9472956817349511560 ) ) ;
#135 = ORIENTED_EDGE ( 'NONE', *, *, #159, .T. ) ;
#136 = DIRECTION ( 'NONE',  ( 3.491481338843133355E-15, 1.224646799147354045E-15, 1.000000000000000000 ) ) ;
#137 = AXIS2_PLACEMENT_3D ( 'NONE', #167, #112, #129 ) ;
#138 = APPROVAL_PERSON_ORGANIZATION ( #36, #180, #262 ) ;
#139 = DIRECTION ( 'NONE',  ( 3.491481338843133355E-15, -1.224646799147353207E-16, 1.000000000000000000 ) ) ;
#140 = ORIENTED_EDGE ( 'NONE', *, *, #238, .T. ) ;
#141 = CARTESIAN_POINT ( 'NONE',  ( 1.047444401652940007E-13, 2.249639673992777927E-32, 30.00000000000000000 ) ) ;
#142 = COORDINATED_UNIVERSAL_TIME_OFFSET ( 1, 0, .AHEAD. ) ;
#143 = ADVANCED_FACE ( 'NONE', ( #217, #162 ), #219, .T. ) ;
#144 = VERTEX_POINT ( 'NONE', #222 ) ;
#145 = COORDINATED_UNIVERSAL_TIME_OFFSET ( 1, 0, .AHEAD. ) ;
#146 = DIRECTION ( 'NONE',  ( -3.491481338843133355E-15, -1.224646799147354045E-15, -1.000000000000000000 ) ) ;
#147 = AXIS2_PLACEMENT_3D ( 'NONE', #8, #105, #205 ) ;
#148 = PRODUCT ( '62862', '62862', '', ( #152 ) ) ;
#149 = DIRECTION ( 'NONE',  ( -4.206146875604253597E-30, 1.000000000000000000, -1.183925093852305781E-15 ) ) ;
#150 = ORIENTED_EDGE ( 'NONE', *, *, #154, .F. ) ;
#151 = DIRECTION ( 'NONE',  ( 0.0000000000000000000, -1.000000000000000000, 0.0000000000000000000 ) ) ;
#152 = MECHANICAL_CONTEXT ( 'NONE', #19, 'mechanical' ) ;
#153 = CLOSED_SHELL ( 'NONE', ( #100, #50, #261, #235 ) ) ;
#154 = EDGE_CURVE ( 'NONE', #128, #128, #199, .T. ) ;
#155 = COORDINATED_UNIVERSAL_TIME_OFFSET ( 1, 0, .AHEAD. ) ;
#156 = CIRCLE ( 'NONE', #179, 2.300000000000000266 ) ;
#157 = CC_DESIGN_PERSON_AND_ORGANIZATION_ASSIGNMENT ( #227, #234, ( #148 ) ) ;
#158 = DIRECTION ( 'NONE',  ( -3.491481338843133355E-15, -1.224646799147354045E-15, -1.000000000000000000 ) ) ;
#159 = EDGE_CURVE ( 'NONE', #204, #204, #9, .T. ) ;
#160 = CC_DESIGN_SECURITY_CLASSIFICATION ( #40, ( #99 ) ) ;
#161 = UNCERTAINTY_MEASURE_WITH_UNIT (LENGTH_MEASURE( 1.000000000000000082E-05 ), #80, 'distance_accuracy_value', 'NONE');
#162 = FACE_OUTER_BOUND ( 'NONE', #228, .T. ) ;
#163 = CC_DESIGN_DATE_AND_TIME_ASSIGNMENT ( #65, #57, ( #40 ) ) ;
#164 = DATE_TIME_ROLE ( 'creation_date' ) ;
#165 = AXIS2_PLACEMENT_3D ( 'NONE', #134, #207, #86 ) ;
#166 = CARTESIAN_POINT ( 'NONE',  ( -3.491481338843130200E-15, -1.224646799147353059E-15, -0.9999999999999991118 ) ) ;
#167 = CARTESIAN_POINT ( 'NONE',  ( 0.0000000000000000000, 0.0000000000000000000, 0.0000000000000000000 ) ) ;
#168 = PERSON_AND_ORGANIZATION ( #124, #256 ) ;
#169 = CARTESIAN_POINT ( 'NONE',  ( -3.491481338843130200E-15, -1.224646799147353059E-15, -0.9999999999999991118 ) ) ;
#170 = ORIENTED_EDGE ( 'NONE', *, *, #159, .F. ) ;
#171 =( NAMED_UNIT ( * ) PLANE_ANGLE_UNIT ( ) SI_UNIT ( $, .RADIAN. ) );
#172 = LOCAL_TIME ( 11, 34, 8.000000000000000000, #155 ) ;
#173 = DATE_AND_TIME ( #203, #172 ) ;
#174 = VERTEX_POINT ( 'NONE', #123 ) ;
#175 = EDGE_LOOP ( 'NONE', ( #250 ) ) ;
#176 = ORIENTED_EDGE ( 'NONE', *, *, #247, .T. ) ;
#177 = CC_DESIGN_PERSON_AND_ORGANIZATION_ASSIGNMENT ( #243, #22, ( #196 ) ) ;
#178 = APPLICATION_PROTOCOL_DEFINITION ( 'international standard', 'config_control_design', 1994, #10 ) ;
#179 = AXIS2_PLACEMENT_3D ( 'NONE', #47, #113, #115 ) ;
#180 = APPROVAL ( #127, 'UNSPECIFIED' ) ;
#181 = DIRECTION ( 'NONE',  ( -3.491481338843133355E-15, 1.224646799147353207E-16, -1.000000000000000000 ) ) ;
#182 = APPROVAL_DATE_TIME ( #130, #180 ) ;
#183 = CALENDAR_DATE ( 2021, 15, 10 ) ;
#184 = DIRECTION ( 'NONE',  ( -4.206146875604253597E-30, 1.000000000000000000, -1.183925093852305781E-15 ) ) ;
#185 = CALENDAR_DATE ( 2021, 15, 10 ) ;
#186 = DIRECTION ( 'NONE',  ( -3.491481338843133355E-15, 1.224646799147353207E-16, -1.000000000000000000 ) ) ;
#187 = FACE_OUTER_BOUND ( 'NONE', #231, .T. ) ;
#188 = DIRECTION ( 'NONE',  ( 3.491481338843133355E-15, 1.224646799147354045E-15, 1.000000000000000000 ) ) ;
#189 = APPLICATION_PROTOCOL_DEFINITION ( 'international standard', 'config_control_design', 1994, #19 ) ;
#190 = ADVANCED_FACE ( 'NONE', ( #37 ), #97, .F. ) ;
#191 = EDGE_LOOP ( 'NONE', ( #176 ) ) ;
#192 = CIRCLE ( 'NONE', #93, 2.380999999999975802 ) ;
#193 = FACE_BOUND ( 'NONE', #30, .T. ) ;
#194 = CARTESIAN_POINT ( 'NONE',  ( 1.187103655206665341E-13, 4.163799117101004504E-14, 34.00000000000000000 ) ) ;
#195 = CONICAL_SURFACE ( 'NONE', #98, 3.499999999999950706, 0.5235987755982980385 ) ;
#196 = PRODUCT_DEFINITION ( 'UNKNOWN', '', #99, #15 ) ;
#197 = DIRECTION ( 'NONE',  ( -3.491481338843133355E-15, 1.224646799147353207E-16, -1.000000000000000000 ) ) ;
#198 = CARTESIAN_POINT ( 'NONE',  ( 1.047444401652940007E-13, 3.673940397442062649E-14, 30.00000000000000000 ) ) ;
#199 = CIRCLE ( 'NONE', #232, 2.380999999999998451 ) ;
#200 = LOCAL_TIME ( 11, 34, 8.000000000000000000, #79 ) ;
#201 = VERTEX_POINT ( 'NONE', #104 ) ;
#202 = ORIENTED_EDGE ( 'NONE', *, *, #91, .T. ) ;
#203 = CALENDAR_DATE ( 2021, 15, 10 ) ;
#204 = VERTEX_POINT ( 'NONE', #18 ) ;
#205 = DIRECTION ( 'NONE',  ( 0.0000000000000000000, 1.000000000000000000, 0.0000000000000000000 ) ) ;
#206 = SHAPE_DEFINITION_REPRESENTATION ( #44, #214 ) ;
#207 = DIRECTION ( 'NONE',  ( 3.491481338843133355E-15, 1.224646799147354045E-15, 1.000000000000000000 ) ) ;
#208 = AXIS2_PLACEMENT_3D ( 'NONE', #3, #131, #63 ) ;
#209 = EDGE_CURVE ( 'NONE', #38, #38, #192, .T. ) ;
#210 = EDGE_LOOP ( 'NONE', ( #88 ) ) ;
#211 = MANIFOLD_SOLID_BREP ( 'Corps-Déplacer/Copier1[2]', #153 ) ;
#212 = AXIS2_PLACEMENT_3D ( 'NONE', #141, #139, #12 ) ;
#213 = APPROVAL ( #254, 'UNSPECIFIED' ) ;
#214 = ADVANCED_BREP_SHAPE_REPRESENTATION ( '62862', ( #126, #211, #137 ), #71 ) ;
#215 = FACE_OUTER_BOUND ( 'NONE', #5, .T. ) ;
#216 = ADVANCED_FACE ( 'NONE', ( #239, #59 ), #66, .T. ) ;
#217 = FACE_OUTER_BOUND ( 'NONE', #191, .T. ) ;
#218 = AXIS2_PLACEMENT_3D ( 'NONE', #198, #186, #230 ) ;
#219 = CYLINDRICAL_SURFACE ( 'NONE', #81, 2.999999999999997780 ) ;
#220 = SECURITY_CLASSIFICATION_LEVEL ( 'unclassified' ) ;
#221 = DATE_AND_TIME ( #183, #77 ) ;
#222 = CARTESIAN_POINT ( 'NONE',  ( 2.279937314264566018E-13, 2.999999999999992450, 65.29999999999999716 ) ) ;
#223 = DIRECTION ( 'NONE',  ( -3.491481338843133355E-15, 1.224646799147353207E-16, -1.000000000000000000 ) ) ;
#224 = EDGE_LOOP ( 'NONE', ( #140 ) ) ;
#225 = CALENDAR_DATE ( 2021, 15, 10 ) ;
#226 = FACE_BOUND ( 'NONE', #246, .T. ) ;
#227 = PERSON_AND_ORGANIZATION ( #124, #256 ) ;
#228 = EDGE_LOOP ( 'NONE', ( #251 ) ) ;
#229 = PERSON_AND_ORGANIZATION ( #124, #256 ) ;
#230 = DIRECTION ( 'NONE',  ( 0.0000000000000000000, -1.000000000000000000, 0.0000000000000000000 ) ) ;
#231 = EDGE_LOOP ( 'NONE', ( #135 ) ) ;
#232 = AXIS2_PLACEMENT_3D ( 'NONE', #75, #158, #236 ) ;
#233 = FACE_OUTER_BOUND ( 'NONE', #67, .T. ) ;
#234 = PERSON_AND_ORGANIZATION_ROLE ( 'design_owner' ) ;
#235 = ADVANCED_FACE ( 'NONE', ( #23, #263 ), #106, .T. ) ;
#236 = DIRECTION ( 'NONE',  ( -4.206146875604213660E-30, 1.000000000000000000, -1.229460674385075175E-15 ) ) ;
#237 = APPROVAL_PERSON_ORGANIZATION ( #101, #55, #2 ) ;
#238 = EDGE_CURVE ( 'NONE', #29, #29, #116, .T. ) ;
#239 = FACE_OUTER_BOUND ( 'NONE', #175, .T. ) ;
#240 = CALENDAR_DATE ( 2021, 15, 10 ) ;
#241 = FACE_OUTER_BOUND ( 'NONE', #125, .T. ) ;
#242 = FACE_OUTER_BOUND ( 'NONE', #114, .T. ) ;
#243 = PERSON_AND_ORGANIZATION ( #124, #256 ) ;
#244 = CARTESIAN_POINT ( 'NONE',  ( 1.224537204025782977E-13, 4.295098331655157563E-14, 35.07213944988521348 ) ) ;
#245 = DIRECTION ( 'NONE',  ( 0.0000000000000000000, 1.000000000000000000, 0.0000000000000000000 ) ) ;
#246 = EDGE_LOOP ( 'NONE', ( #170 ) ) ;
#247 = EDGE_CURVE ( 'NONE', #201, #201, #108, .T. ) ;
#248 = EDGE_LOOP ( 'NONE', ( #202 ) ) ;
#249 = VERTEX_POINT ( 'NONE', #43 ) ;
#250 = ORIENTED_EDGE ( 'NONE', *, *, #94, .T. ) ;
#251 = ORIENTED_EDGE ( 'NONE', *, *, #17, .T. ) ;
#252 = CONICAL_SURFACE ( 'NONE', #255, 1.899999999999999023, 1.221730476396032161 ) ;
#253 = LOCAL_TIME ( 11, 34, 8.000000000000000000, #145 ) ;
#254 = APPROVAL_STATUS ( 'not_yet_approved' ) ;
#255 = AXIS2_PLACEMENT_3D ( 'NONE', #109, #188, #87 ) ;
#256 = ORGANIZATION ( 'UNSPECIFIED', 'UNSPECIFIED', '' ) ;
#257 = LOCAL_TIME ( 11, 34, 8.000000000000000000, #133 ) ;
#258 = DIRECTION ( 'NONE',  ( -3.491481338843133355E-15, -1.224646799147354045E-15, -1.000000000000000000 ) ) ;
#259 = CONICAL_SURFACE ( 'NONE', #165, 2.380999999999998007, 1.082104136236485381 ) ;
#260 = AXIS2_PLACEMENT_3D ( 'NONE', #166, #146, #184 ) ;
#261 = ADVANCED_FACE ( 'NONE', ( #226, #241 ), #259, .T. ) ;
#262 = APPROVAL_ROLE ( '' ) ;
#263 = FACE_OUTER_BOUND ( 'NONE', #45, .T. ) ;
ENDSEC;
END-ISO-10303-21;
