ISO-10303-21;
HEADER;
FILE_DESCRIPTION (( 'STEP AP203' ),
    '1' );
FILE_NAME ('62861.step',
    '2021-10-15T09:34:08',
    ( '' ),
    ( '' ),
    'SwSTEP 2.0',
    'SolidWorks 2019',
    '' );
FILE_SCHEMA (( 'CONFIG_CONTROL_DESIGN' ));
ENDSEC;

DATA;
#1 = CARTESIAN_POINT ( 'NONE',  ( 1.047444401652940007E-13, -2.349999999999939249, 30.00000000000000000 ) ) ;
#2 = FACE_OUTER_BOUND ( 'NONE', #85, .T. ) ;
#3 = ORIENTED_EDGE ( 'NONE', *, *, #231, .F. ) ;
#4 = AXIS2_PLACEMENT_3D ( 'NONE', #88, #242, #65 ) ;
#5 = CARTESIAN_POINT ( 'NONE',  ( 1.047444401652940007E-13, 2.249639673992777927E-32, 30.00000000000000000 ) ) ;
#6 = AXIS2_PLACEMENT_3D ( 'NONE', #153, #195, #260 ) ;
#7 = DIRECTION ( 'NONE',  ( 4.261632217367503458E-30, -1.000000000000000000, 1.245679091791857044E-15 ) ) ;
#8 = DIRECTION ( 'NONE',  ( 4.275831445896958607E-31, 1.000000000000000000, 1.224646799147353454E-16 ) ) ;
#9 = CC_DESIGN_DATE_AND_TIME_ASSIGNMENT ( #11, #236, ( #197 ) ) ;
#10 = PRODUCT_DEFINITION_SHAPE ( 'NONE', 'NONE',  #74 ) ;
#11 = DATE_AND_TIME ( #12, #206 ) ;
#12 = CALENDAR_DATE ( 2021, 15, 10 ) ;
#13 = AXIS2_PLACEMENT_3D ( 'NONE', #147, #167, #204 ) ;
#14 = LOCAL_TIME ( 11, 34, 8.000000000000000000, #174 ) ;
#15 = EDGE_CURVE ( 'NONE', #140, #140, #155, .T. ) ;
#16 = DIRECTION ( 'NONE',  ( 0.0000000000000000000, -1.000000000000000000, 0.0000000000000000000 ) ) ;
#17 = DIRECTION ( 'NONE',  ( 0.0000000000000000000, 1.000000000000000000, 0.0000000000000000000 ) ) ;
#18 = CARTESIAN_POINT ( 'NONE',  ( 2.279937314264566018E-13, 2.999999999999992450, 65.29999999999999716 ) ) ;
#19 = DIRECTION ( 'NONE',  ( 0.0000000000000000000, -1.000000000000000000, 0.0000000000000000000 ) ) ;
#20 = DIRECTION ( 'NONE',  ( 4.314083075427411113E-30, -1.000000000000000000, 1.214306433183765755E-15 ) ) ;
#21 = VERTEX_POINT ( 'NONE', #18 ) ;
#22 = AXIS2_PLACEMENT_3D ( 'NONE', #159, #122, #138 ) ;
#23 = FACE_BOUND ( 'NONE', #54, .T. ) ;
#24 = CC_DESIGN_DATE_AND_TIME_ASSIGNMENT ( #60, #253, ( #74 ) ) ;
#25 = DIRECTION ( 'NONE',  ( -3.491481338843133355E-15, 1.224646799147353207E-16, -1.000000000000000000 ) ) ;
#26 = PLANE ( 'NONE',  #69 ) ;
#27 = MANIFOLD_SOLID_BREP ( 'Corps-Déplacer/Copier1[2]', #196 ) ;
#28 = APPLICATION_CONTEXT ( 'configuration controlled 3d designs of mechanical parts and assemblies' ) ;
#29 = CC_DESIGN_APPROVAL ( #171, ( #74 ) ) ;
#30 = PERSON_AND_ORGANIZATION ( #207, #84 ) ;
#31 = ORIENTED_EDGE ( 'NONE', *, *, #243, .F. ) ;
#32 = SECURITY_CLASSIFICATION_LEVEL ( 'unclassified' ) ;
#33 = AXIS2_PLACEMENT_3D ( 'NONE', #41, #198, #16 ) ;
#34 = FACE_OUTER_BOUND ( 'NONE', #97, .T. ) ;
#35 = APPROVAL_DATE_TIME ( #154, #171 ) ;
#36 = CARTESIAN_POINT ( 'NONE',  ( 1.256649020541046804E-13, 4.407731422007733437E-14, 35.99185842870421226 ) ) ;
#37 = DATE_AND_TIME ( #214, #127 ) ;
#38 = EDGE_LOOP ( 'NONE', ( #73 ) ) ;
#39 = CIRCLE ( 'NONE', #229, 2.349999999999976108 ) ;
#40 = DIRECTION ( 'NONE',  ( 3.491481338843133355E-15, 1.224646799147354045E-15, 1.000000000000000000 ) ) ;
#41 = CARTESIAN_POINT ( 'NONE',  ( 1.047444401652940007E-13, 3.673940397442062649E-14, 30.00000000000000000 ) ) ;
#42 = ADVANCED_FACE ( 'NONE', ( #2, #199 ), #82, .T. ) ;
#43 = EDGE_LOOP ( 'NONE', ( #64 ) ) ;
#44 = CIRCLE ( 'NONE', #50, 2.999999999999997780 ) ;
#45 = CARTESIAN_POINT ( 'NONE',  ( 2.382741151565254979E-15, 8.357530919606532920E-16, 0.6824441892491258654 ) ) ;
#46 = EDGE_LOOP ( 'NONE', ( #224 ) ) ;
#47 = FACE_OUTER_BOUND ( 'NONE', #233, .T. ) ;
#48 = AXIS2_PLACEMENT_3D ( 'NONE', #205, #25, #67 ) ;
#49 = CYLINDRICAL_SURFACE ( 'NONE', #102, 2.999999999999997780 ) ;
#50 = AXIS2_PLACEMENT_3D ( 'NONE', #86, #107, #112 ) ;
#51 = PLANE ( 'NONE',  #6 ) ;
#52 = CIRCLE ( 'NONE', #33, 2.349999999999976108 ) ;
#53 = CC_DESIGN_APPROVAL ( #239, ( #115 ) ) ;
#54 = EDGE_LOOP ( 'NONE', ( #258 ) ) ;
#55 = MECHANICAL_CONTEXT ( 'NONE', #215, 'mechanical' ) ;
#56 = EDGE_LOOP ( 'NONE', ( #3 ) ) ;
#57 = CARTESIAN_POINT ( 'NONE',  ( 0.0000000000000000000, 0.0000000000000000000, 0.0000000000000000000 ) ) ;
#58 = CIRCLE ( 'NONE', #93, 3.000000000000000000 ) ;
#59 = APPROVAL_STATUS ( 'not_yet_approved' ) ;
#60 = DATE_AND_TIME ( #132, #14 ) ;
#61 = CARTESIAN_POINT ( 'NONE',  ( 2.304377683636468267E-13, -8.082668874372532400E-15, 66.00000000000000000 ) ) ;
#62 = AXIS2_PLACEMENT_3D ( 'NONE', #5, #249, #70 ) ;
#63 = CARTESIAN_POINT ( 'NONE',  ( 3.264556591773388663E-15, 2.350000000000000089, 0.9350061692883244735 ) ) ;
#64 = ORIENTED_EDGE ( 'NONE', *, *, #130, .F. ) ;
#65 = DIRECTION ( 'NONE',  ( 0.0000000000000000000, 1.000000000000000000, 0.0000000000000000000 ) ) ;
#66 = EDGE_CURVE ( 'NONE', #241, #241, #39, .T. ) ;
#67 = DIRECTION ( 'NONE',  ( 0.0000000000000000000, 1.000000000000000000, 0.0000000000000000000 ) ) ;
#68 = FACE_OUTER_BOUND ( 'NONE', #43, .T. ) ;
#69 = AXIS2_PLACEMENT_3D ( 'NONE', #166, #129, #109 ) ;
#70 = DIRECTION ( 'NONE',  ( -4.275831445896958607E-31, -1.000000000000000000, -1.224646799147353207E-16 ) ) ;
#71 = CARTESIAN_POINT ( 'NONE',  ( 2.304377683636468267E-13, 2.299999999999992273, 66.00000000000000000 ) ) ;
#72 = APPROVAL_ROLE ( '' ) ;
#73 = ORIENTED_EDGE ( 'NONE', *, *, #164, .T. ) ;
#74 = PRODUCT_DEFINITION ( 'UNKNOWN', '', #115, #81 ) ;
#75 = PERSON_AND_ORGANIZATION ( #207, #84 ) ;
#76 = APPROVAL_DATE_TIME ( #133, #239 ) ;
#77 = APPROVAL_ROLE ( '' ) ;
#78 = APPROVAL_PERSON_ORGANIZATION ( #75, #239, #72 ) ;
#79 = PERSON_AND_ORGANIZATION_ROLE ( 'design_owner' ) ;
#80 = EDGE_LOOP ( 'NONE', ( #99 ) ) ;
#81 = DESIGN_CONTEXT ( 'detailed design', #28, 'design' ) ;
#82 = CYLINDRICAL_SURFACE ( 'NONE', #22, 2.349999999999976108 ) ;
#83 = CC_DESIGN_PERSON_AND_ORGANIZATION_ASSIGNMENT ( #234, #111, ( #74 ) ) ;
#84 = ORGANIZATION ( 'UNSPECIFIED', 'UNSPECIFIED', '' ) ;
#85 = EDGE_LOOP ( 'NONE', ( #100 ) ) ;
#86 = CARTESIAN_POINT ( 'NONE',  ( 1.226411905178275043E-13, 4.301673898135252364E-14, 35.12583302491985648 ) ) ;
#87 = CARTESIAN_POINT ( 'NONE',  ( 1.226411905178275295E-13, -2.999999999999955147, 35.12583302491985648 ) ) ;
#88 = CARTESIAN_POINT ( 'NONE',  ( 1.187103655206665341E-13, 4.163799117101004504E-14, 34.00000000000000000 ) ) ;
#89 = AXIS2_PLACEMENT_3D ( 'NONE', #45, #40, #20 ) ;
#90 = LOCAL_TIME ( 11, 34, 8.000000000000000000, #194 ) ;
#91 = FACE_OUTER_BOUND ( 'NONE', #56, .T. ) ;
#92 = PLANE ( 'NONE',  #62 ) ;
#93 = AXIS2_PLACEMENT_3D ( 'NONE', #139, #263, #17 ) ;
#94 = FACE_BOUND ( 'NONE', #178, .T. ) ;
#95 = PERSON_AND_ORGANIZATION ( #207, #84 ) ;
#96 = APPLICATION_PROTOCOL_DEFINITION ( 'international standard', 'config_control_design', 1994, #215 ) ;
#97 = EDGE_LOOP ( 'NONE', ( #175 ) ) ;
#98 = COORDINATED_UNIVERSAL_TIME_OFFSET ( 1, 0, .AHEAD. ) ;
#99 = ORIENTED_EDGE ( 'NONE', *, *, #134, .F. ) ;
#100 = ORIENTED_EDGE ( 'NONE', *, *, #66, .T. ) ;
#101 = ORIENTED_EDGE ( 'NONE', *, *, #15, .F. ) ;
#102 = AXIS2_PLACEMENT_3D ( 'NONE', #128, #187, #8 ) ;
#103 = ADVANCED_FACE ( 'NONE', ( #223 ), #148, .T. ) ;
#104 = FACE_OUTER_BOUND ( 'NONE', #150, .T. ) ;
#105 = DIRECTION ( 'NONE',  ( 3.491481338843133355E-15, 1.224646799147354045E-15, 1.000000000000000000 ) ) ;
#106 = CC_DESIGN_PERSON_AND_ORGANIZATION_ASSIGNMENT ( #30, #135, ( #115 ) ) ;
#107 = DIRECTION ( 'NONE',  ( 3.491481338843133355E-15, 1.224646799147354045E-15, 1.000000000000000000 ) ) ;
#108 = FACE_OUTER_BOUND ( 'NONE', #217, .T. ) ;
#109 = DIRECTION ( 'NONE',  ( 4.275831445896958607E-31, 1.000000000000000000, 1.224646799147353207E-16 ) ) ;
#110 = PRODUCT ( '62861', '62861', '', ( #55 ) ) ;
#111 = PERSON_AND_ORGANIZATION_ROLE ( 'creator' ) ;
#112 = DIRECTION ( 'NONE',  ( 8.217301096052212846E-30, -1.000000000000000000, 2.312964634635744633E-15 ) ) ;
#113 = PERSON_AND_ORGANIZATION ( #207, #84 ) ;
#114 = PERSON_AND_ORGANIZATION ( #207, #84 ) ;
#115 = PRODUCT_DEFINITION_FORMATION_WITH_SPECIFIED_SOURCE ( 'ANY', '', #110, .NOT_KNOWN. ) ;
#116 = FACE_OUTER_BOUND ( 'NONE', #142, .T. ) ;
#117 = PERSON_AND_ORGANIZATION_ROLE ( 'classification_officer' ) ;
#118 = SHAPE_DEFINITION_REPRESENTATION ( #10, #262 ) ;
#119 = UNCERTAINTY_MEASURE_WITH_UNIT (LENGTH_MEASURE( 1.000000000000000082E-05 ), #222, 'distance_accuracy_value', 'NONE');
#120 = CC_DESIGN_SECURITY_CLASSIFICATION ( #197, ( #115 ) ) ;
#121 = CC_DESIGN_PERSON_AND_ORGANIZATION_ASSIGNMENT ( #113, #208, ( #115 ) ) ;
#122 = DIRECTION ( 'NONE',  ( -3.491481338843133355E-15, -1.224646799147354045E-15, -1.000000000000000000 ) ) ;
#123 = CARTESIAN_POINT ( 'NONE',  ( 2.382741151565246696E-15, 1.874999999999999778, 0.6824441892491235340 ) ) ;
#124 = EDGE_CURVE ( 'NONE', #250, #250, #221, .T. ) ;
#125 = CARTESIAN_POINT ( 'NONE',  ( 3.264556591773398918E-15, 1.145052312401979217E-15, 0.9350061692883274711 ) ) ;
#126 = AXIS2_PLACEMENT_3D ( 'NONE', #181, #183, #246 ) ;
#127 = LOCAL_TIME ( 11, 34, 8.000000000000000000, #137 ) ;
#128 = CARTESIAN_POINT ( 'NONE',  ( 0.0000000000000000000, 0.0000000000000000000, 0.0000000000000000000 ) ) ;
#129 = DIRECTION ( 'NONE',  ( -3.491481338843133355E-15, 1.224646799147353207E-16, -1.000000000000000000 ) ) ;
#130 = EDGE_CURVE ( 'NONE', #160, #160, #52, .T. ) ;
#131 = CARTESIAN_POINT ( 'NONE',  ( 1.047444401652940007E-13, -2.349999999999939249, 30.00000000000000000 ) ) ;
#132 = CALENDAR_DATE ( 2021, 15, 10 ) ;
#133 = DATE_AND_TIME ( #188, #90 ) ;
#134 = EDGE_CURVE ( 'NONE', #240, #240, #172, .T. ) ;
#135 = PERSON_AND_ORGANIZATION_ROLE ( 'design_supplier' ) ;
#136 = AXIS2_PLACEMENT_3D ( 'NONE', #165, #145, #225 ) ;
#137 = COORDINATED_UNIVERSAL_TIME_OFFSET ( 1, 0, .AHEAD. ) ;
#138 = DIRECTION ( 'NONE',  ( -4.261632217367544096E-30, 1.000000000000000000, -1.199542829132910763E-15 ) ) ;
#139 = CARTESIAN_POINT ( 'NONE',  ( 2.279937314264566018E-13, -7.996943598432214956E-15, 65.29999999999999716 ) ) ;
#140 = VERTEX_POINT ( 'NONE', #219 ) ;
#141 = VERTEX_POINT ( 'NONE', #123 ) ;
#142 = EDGE_LOOP ( 'NONE', ( #31 ) ) ;
#143 = APPROVAL ( #59, 'UNSPECIFIED' ) ;
#144 = ORIENTED_EDGE ( 'NONE', *, *, #124, .T. ) ;
#145 = DIRECTION ( 'NONE',  ( -3.491481338843133355E-15, -1.224646799147354045E-15, -1.000000000000000000 ) ) ;
#146 = ADVANCED_FACE ( 'NONE', ( #91, #226 ), #177, .T. ) ;
#147 = CARTESIAN_POINT ( 'NONE',  ( 2.382741151565254979E-15, 8.357530919606532920E-16, 0.6824441892491258654 ) ) ;
#148 = CONICAL_SURFACE ( 'NONE', #89, 1.874999999999998890, 1.221730476396032161 ) ;
#149 = AXIS2_PLACEMENT_3D ( 'NONE', #57, #257, #232 ) ;
#150 = EDGE_LOOP ( 'NONE', ( #259 ) ) ;
#151 =( NAMED_UNIT ( * ) PLANE_ANGLE_UNIT ( ) SI_UNIT ( $, .RADIAN. ) );
#152 = APPROVAL_STATUS ( 'not_yet_approved' ) ;
#153 = CARTESIAN_POINT ( 'NONE',  ( 1.047444401652940007E-13, 2.249639673992777927E-32, 30.00000000000000000 ) ) ;
#154 = DATE_AND_TIME ( #256, #228 ) ;
#155 = CIRCLE ( 'NONE', #4, 2.349999999999953904 ) ;
#156 = APPLICATION_PROTOCOL_DEFINITION ( 'international standard', 'config_control_design', 1994, #28 ) ;
#157 = ORIENTED_EDGE ( 'NONE', *, *, #130, .T. ) ;
#158 = PRODUCT_RELATED_PRODUCT_CATEGORY ( 'detail', '', ( #110 ) ) ;
#159 = CARTESIAN_POINT ( 'NONE',  ( -3.491481338843130200E-15, -1.224646799147353059E-15, -0.9999999999999991118 ) ) ;
#160 = VERTEX_POINT ( 'NONE', #131 ) ;
#161 = EDGE_LOOP ( 'NONE', ( #157 ) ) ;
#162 = ORIENTED_EDGE ( 'NONE', *, *, #243, .T. ) ;
#163 = APPROVAL_PERSON_ORGANIZATION ( #95, #171, #77 ) ;
#164 = EDGE_CURVE ( 'NONE', #141, #141, #216, .T. ) ;
#165 = CARTESIAN_POINT ( 'NONE',  ( -3.491481338843130200E-15, -1.224646799147353059E-15, -0.9999999999999991118 ) ) ;
#166 = CARTESIAN_POINT ( 'NONE',  ( 2.304377683636468267E-13, 1.724723750061123933E-32, 66.00000000000000000 ) ) ;
#167 = DIRECTION ( 'NONE',  ( -3.491481338843133355E-15, -1.224646799147354045E-15, -1.000000000000000000 ) ) ;
#168 = CLOSED_SHELL ( 'NONE', ( #169, #146, #213, #202, #247, #179 ) ) ;
#169 = ADVANCED_FACE ( 'NONE', ( #248, #108 ), #49, .T. ) ;
#170 = APPROVAL_STATUS ( 'not_yet_approved' ) ;
#171 = APPROVAL ( #152, 'UNSPECIFIED' ) ;
#172 = CIRCLE ( 'NONE', #126, 2.349999999999998757 ) ;
#173 = CONICAL_SURFACE ( 'NONE', #212, 3.499999999999950262, 0.5235987755982971503 ) ;
#174 = COORDINATED_UNIVERSAL_TIME_OFFSET ( 1, 0, .AHEAD. ) ;
#175 = ORIENTED_EDGE ( 'NONE', *, *, #66, .F. ) ;
#176 = PERSON_AND_ORGANIZATION ( #207, #84 ) ;
#177 = CONICAL_SURFACE ( 'NONE', #48, 2.300000000000000266, 0.7853981633974437271 ) ;
#178 = EDGE_LOOP ( 'NONE', ( #101 ) ) ;
#179 = ADVANCED_FACE ( 'NONE', ( #185 ), #92, .F. ) ;
#180 = AXIS2_PLACEMENT_3D ( 'NONE', #125, #105, #7 ) ;
#181 = CARTESIAN_POINT ( 'NONE',  ( 3.264556591773398918E-15, 1.145052312401979217E-15, 0.9350061692883274711 ) ) ;
#182 = VERTEX_POINT ( 'NONE', #87 ) ;
#183 = DIRECTION ( 'NONE',  ( -3.491481338843133355E-15, -1.224646799147354045E-15, -1.000000000000000000 ) ) ;
#184 = CYLINDRICAL_SURFACE ( 'NONE', #136, 2.349999999999976108 ) ;
#185 = FACE_OUTER_BOUND ( 'NONE', #161, .T. ) ;
#186 = FACE_OUTER_BOUND ( 'NONE', #46, .T. ) ;
#187 = DIRECTION ( 'NONE',  ( -3.491481338843133355E-15, 1.224646799147353207E-16, -1.000000000000000000 ) ) ;
#188 = CALENDAR_DATE ( 2021, 15, 10 ) ;
#189 =( NAMED_UNIT ( * ) SI_UNIT ( $, .STERADIAN. ) SOLID_ANGLE_UNIT ( ) );
#190 = CC_DESIGN_PERSON_AND_ORGANIZATION_ASSIGNMENT ( #176, #79, ( #110 ) ) ;
#191 = DIRECTION ( 'NONE',  ( 7.043400939473419384E-30, -1.000000000000000000, 1.982541115402093312E-15 ) ) ;
#192 = APPROVAL_ROLE ( '' ) ;
#193 = APPROVAL_PERSON_ORGANIZATION ( #114, #143, #192 ) ;
#194 = COORDINATED_UNIVERSAL_TIME_OFFSET ( 1, 0, .AHEAD. ) ;
#195 = DIRECTION ( 'NONE',  ( 3.491481338843133355E-15, -1.224646799147353207E-16, 1.000000000000000000 ) ) ;
#196 = CLOSED_SHELL ( 'NONE', ( #261, #103, #209, #42 ) ) ;
#197 = SECURITY_CLASSIFICATION ( '', '', #32 ) ;
#198 = DIRECTION ( 'NONE',  ( -3.491481338843133355E-15, 1.224646799147353207E-16, -1.000000000000000000 ) ) ;
#199 = FACE_OUTER_BOUND ( 'NONE', #80, .T. ) ;
#200 = MANIFOLD_SOLID_BREP ( 'Corps-Déplacer/Copier1[1]', #168 ) ;
#201 = DIRECTION ( 'NONE',  ( 0.0000000000000000000, 1.000000000000000000, 0.0000000000000000000 ) ) ;
#202 = ADVANCED_FACE ( 'NONE', ( #104, #68 ), #184, .T. ) ;
#203 = ORIENTED_EDGE ( 'NONE', *, *, #231, .T. ) ;
#204 = DIRECTION ( 'NONE',  ( -4.314083075427411113E-30, 1.000000000000000000, -1.214306433183765755E-15 ) ) ;
#205 = CARTESIAN_POINT ( 'NONE',  ( 2.304377683636468267E-13, -8.082668874372532400E-15, 66.00000000000000000 ) ) ;
#206 = LOCAL_TIME ( 11, 34, 8.000000000000000000, #211 ) ;
#207 = PERSON ( 'UNSPECIFIED', 'UNSPECIFIED', 'UNSPECIFIED', ('UNSPECIFIED'), ('UNSPECIFIED'), ('UNSPECIFIED') ) ;
#208 = PERSON_AND_ORGANIZATION_ROLE ( 'creator' ) ;
#209 = ADVANCED_FACE ( 'NONE', ( #23, #47 ), #227, .T. ) ;
#210 = EDGE_LOOP ( 'NONE', ( #162 ) ) ;
#211 = COORDINATED_UNIVERSAL_TIME_OFFSET ( 1, 0, .AHEAD. ) ;
#212 = AXIS2_PLACEMENT_3D ( 'NONE', #36, #235, #191 ) ;
#213 = ADVANCED_FACE ( 'NONE', ( #186 ), #26, .F. ) ;
#214 = CALENDAR_DATE ( 2021, 15, 10 ) ;
#215 = APPLICATION_CONTEXT ( 'configuration controlled 3d designs of mechanical parts and assemblies' ) ;
#216 = CIRCLE ( 'NONE', #13, 1.874999999999998890 ) ;
#217 = EDGE_LOOP ( 'NONE', ( #203 ) ) ;
#218 = DIRECTION ( 'NONE',  ( -3.491481338843133355E-15, 1.224646799147353207E-16, -1.000000000000000000 ) ) ;
#219 = CARTESIAN_POINT ( 'NONE',  ( 1.187103655206665341E-13, 2.349999999999995648, 34.00000000000000000 ) ) ;
#220 = ORIENTED_EDGE ( 'NONE', *, *, #134, .T. ) ;
#221 = CIRCLE ( 'NONE', #244, 2.300000000000000266 ) ;
#222 =( LENGTH_UNIT ( ) NAMED_UNIT ( * ) SI_UNIT ( .MILLI., .METRE. ) );
#223 = FACE_OUTER_BOUND ( 'NONE', #38, .T. ) ;
#224 = ORIENTED_EDGE ( 'NONE', *, *, #124, .F. ) ;
#225 = DIRECTION ( 'NONE',  ( -4.261632217367544096E-30, 1.000000000000000000, -1.199542829132910763E-15 ) ) ;
#226 = FACE_BOUND ( 'NONE', #255, .T. ) ;
#227 = CONICAL_SURFACE ( 'NONE', #180, 2.349999999999998312, 1.082104136236485159 ) ;
#228 = LOCAL_TIME ( 11, 34, 8.000000000000000000, #98 ) ;
#229 = AXIS2_PLACEMENT_3D ( 'NONE', #245, #238, #19 ) ;
#230 = CC_DESIGN_APPROVAL ( #143, ( #197 ) ) ;
#231 = EDGE_CURVE ( 'NONE', #21, #21, #58, .T. ) ;
#232 = DIRECTION ( 'NONE',  ( 1.000000000000000000, 0.0000000000000000000, 0.0000000000000000000 ) ) ;
#233 = EDGE_LOOP ( 'NONE', ( #220 ) ) ;
#234 = PERSON_AND_ORGANIZATION ( #207, #84 ) ;
#235 = DIRECTION ( 'NONE',  ( 3.491481338843133355E-15, 1.224646799147354045E-15, 1.000000000000000000 ) ) ;
#236 = DATE_TIME_ROLE ( 'classification_date' ) ;
#237 = PERSON_AND_ORGANIZATION ( #207, #84 ) ;
#238 = DIRECTION ( 'NONE',  ( -3.491481338843133355E-15, 1.224646799147353207E-16, -1.000000000000000000 ) ) ;
#239 = APPROVAL ( #170, 'UNSPECIFIED' ) ;
#240 = VERTEX_POINT ( 'NONE', #63 ) ;
#241 = VERTEX_POINT ( 'NONE', #1 ) ;
#242 = DIRECTION ( 'NONE',  ( -3.491481338843133355E-15, -1.224646799147354045E-15, -1.000000000000000000 ) ) ;
#243 = EDGE_CURVE ( 'NONE', #182, #182, #44, .T. ) ;
#244 = AXIS2_PLACEMENT_3D ( 'NONE', #61, #218, #201 ) ;
#245 = CARTESIAN_POINT ( 'NONE',  ( 1.047444401652940007E-13, 3.673940397442062649E-14, 30.00000000000000000 ) ) ;
#246 = DIRECTION ( 'NONE',  ( -4.261632217367502758E-30, 1.000000000000000000, -1.245679091791856846E-15 ) ) ;
#247 = ADVANCED_FACE ( 'NONE', ( #94, #116 ), #173, .T. ) ;
#248 = FACE_OUTER_BOUND ( 'NONE', #210, .T. ) ;
#249 = DIRECTION ( 'NONE',  ( 3.491481338843133355E-15, -1.224646799147353207E-16, 1.000000000000000000 ) ) ;
#250 = VERTEX_POINT ( 'NONE', #71 ) ;
#251 = APPROVAL_DATE_TIME ( #37, #143 ) ;
#252 =( GEOMETRIC_REPRESENTATION_CONTEXT ( 3 ) GLOBAL_UNCERTAINTY_ASSIGNED_CONTEXT ( ( #119 ) ) GLOBAL_UNIT_ASSIGNED_CONTEXT ( ( #222, #151, #189 ) ) REPRESENTATION_CONTEXT ( 'NONE', 'WORKASPACE' ) );
#253 = DATE_TIME_ROLE ( 'creation_date' ) ;
#254 = CC_DESIGN_PERSON_AND_ORGANIZATION_ASSIGNMENT ( #237, #117, ( #197 ) ) ;
#255 = EDGE_LOOP ( 'NONE', ( #144 ) ) ;
#256 = CALENDAR_DATE ( 2021, 15, 10 ) ;
#257 = DIRECTION ( 'NONE',  ( 0.0000000000000000000, 0.0000000000000000000, 1.000000000000000000 ) ) ;
#258 = ORIENTED_EDGE ( 'NONE', *, *, #164, .F. ) ;
#259 = ORIENTED_EDGE ( 'NONE', *, *, #15, .T. ) ;
#260 = DIRECTION ( 'NONE',  ( -4.275831445896958607E-31, -1.000000000000000000, -1.224646799147353207E-16 ) ) ;
#261 = ADVANCED_FACE ( 'NONE', ( #34 ), #51, .T. ) ;
#262 = ADVANCED_BREP_SHAPE_REPRESENTATION ( '62861', ( #200, #27, #149 ), #252 ) ;
#263 = DIRECTION ( 'NONE',  ( -3.491481338843133355E-15, 1.224646799147353207E-16, -1.000000000000000000 ) ) ;
ENDSEC;
END-ISO-10303-21;
