ISO-10303-21;
HEADER;
FILE_DESCRIPTION (( 'STEP AP203' ),
    '1' );
FILE_NAME ('62860.step',
    '2021-10-15T09:34:07',
    ( '' ),
    ( '' ),
    'SwSTEP 2.0',
    'SolidWorks 2019',
    '' );
FILE_SCHEMA (( 'CONFIG_CONTROL_DESIGN' ));
ENDSEC;

DATA;
#1 = ADVANCED_FACE ( 'NONE', ( #176, #251 ), #70, .T. ) ;
#2 = CARTESIAN_POINT ( 'NONE',  ( 2.279937314264566018E-13, 2.999999999999992450, 65.29999999999999716 ) ) ;
#3 = DIRECTION ( 'NONE',  ( 3.491481338843133355E-15, -1.224646799147353207E-16, 1.000000000000000000 ) ) ;
#4 = AXIS2_PLACEMENT_3D ( 'NONE', #130, #248, #209 ) ;
#5 = ORIENTED_EDGE ( 'NONE', *, *, #44, .T. ) ;
#6 = VERTEX_POINT ( 'NONE', #230 ) ;
#7 = EDGE_LOOP ( 'NONE', ( #49 ) ) ;
#8 = DIRECTION ( 'NONE',  ( -3.491481338843133355E-15, -1.224646799147354045E-15, -1.000000000000000000 ) ) ;
#9 = ORIENTED_EDGE ( 'NONE', *, *, #139, .T. ) ;
#10 = SHAPE_DEFINITION_REPRESENTATION ( #200, #13 ) ;
#11 = SECURITY_CLASSIFICATION ( '', '', #218 ) ;
#12 = DATE_AND_TIME ( #252, #244 ) ;
#13 = ADVANCED_BREP_SHAPE_REPRESENTATION ( '62860', ( #207, #116, #39 ), #183 ) ;
#14 = AXIS2_PLACEMENT_3D ( 'NONE', #108, #8, #166 ) ;
#15 =( NAMED_UNIT ( * ) PLANE_ANGLE_UNIT ( ) SI_UNIT ( $, .RADIAN. ) );
#16 = DIRECTION ( 'NONE',  ( -3.491481338843133355E-15, 1.224646799147353207E-16, -1.000000000000000000 ) ) ;
#17 = FACE_BOUND ( 'NONE', #192, .T. ) ;
#18 = DIRECTION ( 'NONE',  ( 7.043400939473419384E-30, -1.000000000000000000, 1.982541115402093312E-15 ) ) ;
#19 = DIRECTION ( 'NONE',  ( 0.0000000000000000000, -1.000000000000000000, 0.0000000000000000000 ) ) ;
#20 = DIRECTION ( 'NONE',  ( 8.217301096052212846E-30, -1.000000000000000000, 2.312964634635744633E-15 ) ) ;
#21 = CARTESIAN_POINT ( 'NONE',  ( 3.186375370794205798E-15, 1.117630031503486818E-15, 0.9126141776401356376 ) ) ;
#22 = CARTESIAN_POINT ( 'NONE',  ( 1.047444401652940007E-13, 2.249639673992777927E-32, 30.00000000000000000 ) ) ;
#23 = PERSON ( 'UNSPECIFIED', 'UNSPECIFIED', 'UNSPECIFIED', ('UNSPECIFIED'), ('UNSPECIFIED'), ('UNSPECIFIED') ) ;
#24 = PRODUCT ( '62860', '62860', '', ( #237 ) ) ;
#25 = VERTEX_POINT ( 'NONE', #210 ) ;
#26 = EDGE_LOOP ( 'NONE', ( #164 ) ) ;
#27 = DIRECTION ( 'NONE',  ( -3.491481338843133355E-15, -1.224646799147354045E-15, -1.000000000000000000 ) ) ;
#28 = DATE_TIME_ROLE ( 'classification_date' ) ;
#29 = DATE_AND_TIME ( #140, #134 ) ;
#30 = PERSON_AND_ORGANIZATION ( #23, #92 ) ;
#31 = CC_DESIGN_PERSON_AND_ORGANIZATION_ASSIGNMENT ( #30, #122, ( #11 ) ) ;
#32 = DATE_AND_TIME ( #214, #154 ) ;
#33 = FACE_OUTER_BOUND ( 'NONE', #74, .T. ) ;
#34 = CC_DESIGN_APPROVAL ( #198, ( #215 ) ) ;
#35 = CARTESIAN_POINT ( 'NONE',  ( 2.304377683636468267E-13, -8.082668874372532400E-15, 66.00000000000000000 ) ) ;
#36 = CARTESIAN_POINT ( 'NONE',  ( 1.047444401652940007E-13, 2.249639673992777927E-32, 30.00000000000000000 ) ) ;
#37 = CARTESIAN_POINT ( 'NONE',  ( 1.047444401652940007E-13, 3.673940397442062649E-14, 30.00000000000000000 ) ) ;
#38 = AXIS2_PLACEMENT_3D ( 'NONE', #231, #27, #109 ) ;
#39 = AXIS2_PLACEMENT_3D ( 'NONE', #52, #138, #220 ) ;
#40 = PRODUCT_DEFINITION ( 'UNKNOWN', '', #215, #103 ) ;
#41 = DIRECTION ( 'NONE',  ( -3.491481338843133355E-15, -1.224646799147354045E-15, -1.000000000000000000 ) ) ;
#42 = AXIS2_PLACEMENT_3D ( 'NONE', #22, #3, #208 ) ;
#43 = DIRECTION ( 'NONE',  ( -3.491481338843133355E-15, -1.224646799147354045E-15, -1.000000000000000000 ) ) ;
#44 = EDGE_CURVE ( 'NONE', #113, #113, #202, .T. ) ;
#45 = VERTEX_POINT ( 'NONE', #186 ) ;
#46 = EDGE_LOOP ( 'NONE', ( #153 ) ) ;
#47 = DIRECTION ( 'NONE',  ( 3.491481338843133355E-15, 1.224646799147354045E-15, 1.000000000000000000 ) ) ;
#48 = FACE_OUTER_BOUND ( 'NONE', #168, .T. ) ;
#49 = ORIENTED_EDGE ( 'NONE', *, *, #139, .F. ) ;
#50 = CALENDAR_DATE ( 2021, 15, 10 ) ;
#51 = ADVANCED_FACE ( 'NONE', ( #161 ), #58, .F. ) ;
#52 = CARTESIAN_POINT ( 'NONE',  ( 0.0000000000000000000, 0.0000000000000000000, 0.0000000000000000000 ) ) ;
#53 = APPROVAL_DATE_TIME ( #12, #198 ) ;
#54 = AXIS2_PLACEMENT_3D ( 'NONE', #105, #172, #250 ) ;
#55 = DATE_TIME_ROLE ( 'creation_date' ) ;
#56 = CC_DESIGN_PERSON_AND_ORGANIZATION_ASSIGNMENT ( #117, #196, ( #40 ) ) ;
#57 = DIRECTION ( 'NONE',  ( 0.0000000000000000000, 1.000000000000000000, 0.0000000000000000000 ) ) ;
#58 = PLANE ( 'NONE',  #72 ) ;
#59 = AXIS2_PLACEMENT_3D ( 'NONE', #35, #80, #57 ) ;
#60 = CARTESIAN_POINT ( 'NONE',  ( 1.047444401652940007E-13, 3.673940397442062649E-14, 30.00000000000000000 ) ) ;
#61 = CC_DESIGN_PERSON_AND_ORGANIZATION_ASSIGNMENT ( #235, #99, ( #215 ) ) ;
#62 = PLANE ( 'NONE',  #42 ) ;
#63 = CONICAL_SURFACE ( 'NONE', #119, 2.299999999999998046, 1.082104136236485381 ) ;
#64 = APPROVAL ( #197, 'UNSPECIFIED' ) ;
#65 = LOCAL_TIME ( 11, 34, 7.000000000000000000, #201 ) ;
#66 =( LENGTH_UNIT ( ) NAMED_UNIT ( * ) SI_UNIT ( .MILLI., .METRE. ) );
#67 = EDGE_LOOP ( 'NONE', ( #85 ) ) ;
#68 = DIRECTION ( 'NONE',  ( -4.354276396005927157E-30, 1.000000000000000000, -1.225619847157527489E-15 ) ) ;
#69 = EDGE_LOOP ( 'NONE', ( #9 ) ) ;
#70 = CYLINDRICAL_SURFACE ( 'NONE', #38, 2.299999999999976286 ) ;
#71 = PERSON_AND_ORGANIZATION ( #23, #92 ) ;
#72 = AXIS2_PLACEMENT_3D ( 'NONE', #36, #243, #142 ) ;
#73 = APPROVAL_PERSON_ORGANIZATION ( #81, #182, #193 ) ;
#74 = EDGE_LOOP ( 'NONE', ( #90 ) ) ;
#75 = PERSON_AND_ORGANIZATION_ROLE ( 'design_owner' ) ;
#76 = PERSON_AND_ORGANIZATION ( #23, #92 ) ;
#77 = EDGE_CURVE ( 'NONE', #152, #152, #87, .T. ) ;
#78 = AXIS2_PLACEMENT_3D ( 'NONE', #241, #83, #106 ) ;
#79 = CIRCLE ( 'NONE', #256, 2.299999999999998490 ) ;
#80 = DIRECTION ( 'NONE',  ( -3.491481338843133355E-15, 1.224646799147353207E-16, -1.000000000000000000 ) ) ;
#81 = PERSON_AND_ORGANIZATION ( #23, #92 ) ;
#82 = CARTESIAN_POINT ( 'NONE',  ( 2.279937314264566018E-13, -7.996943598432214956E-15, 65.29999999999999716 ) ) ;
#83 = DIRECTION ( 'NONE',  ( -3.491481338843133355E-15, 1.224646799147353207E-16, -1.000000000000000000 ) ) ;
#84 = AXIS2_PLACEMENT_3D ( 'NONE', #131, #240, #259 ) ;
#85 = ORIENTED_EDGE ( 'NONE', *, *, #205, .F. ) ;
#86 = ADVANCED_FACE ( 'NONE', ( #221, #260 ), #159, .T. ) ;
#87 = CIRCLE ( 'NONE', #91, 2.299999999999976286 ) ;
#88 = FACE_OUTER_BOUND ( 'NONE', #26, .T. ) ;
#89 = CARTESIAN_POINT ( 'NONE',  ( 1.187103655206665341E-13, 2.299999999999995826, 34.00000000000000000 ) ) ;
#90 = ORIENTED_EDGE ( 'NONE', *, *, #233, .F. ) ;
#91 = AXIS2_PLACEMENT_3D ( 'NONE', #37, #16, #204 ) ;
#92 = ORGANIZATION ( 'UNSPECIFIED', 'UNSPECIFIED', '' ) ;
#93 = CARTESIAN_POINT ( 'NONE',  ( 1.229435616714552673E-13, 4.312279650522501229E-14, 35.21243556529829277 ) ) ;
#94 = EDGE_LOOP ( 'NONE', ( #173 ) ) ;
#95 = VERTEX_POINT ( 'NONE', #2 ) ;
#96 = ORIENTED_EDGE ( 'NONE', *, *, #100, .T. ) ;
#97 = APPROVAL_STATUS ( 'not_yet_approved' ) ;
#98 = CIRCLE ( 'NONE', #232, 1.849999999999999201 ) ;
#99 = PERSON_AND_ORGANIZATION_ROLE ( 'design_supplier' ) ;
#100 = EDGE_CURVE ( 'NONE', #45, #45, #102, .T. ) ;
#101 = APPLICATION_PROTOCOL_DEFINITION ( 'international standard', 'config_control_design', 1994, #158 ) ;
#102 = CIRCLE ( 'NONE', #59, 2.300000000000000266 ) ;
#103 = DESIGN_CONTEXT ( 'detailed design', #147, 'design' ) ;
#104 = CONICAL_SURFACE ( 'NONE', #4, 1.849999999999998979, 1.221730476396032161 ) ;
#105 = CARTESIAN_POINT ( 'NONE',  ( 2.304377683636468267E-13, -8.082668874372532400E-15, 66.00000000000000000 ) ) ;
#106 = DIRECTION ( 'NONE',  ( 4.275831445896958607E-31, 1.000000000000000000, 1.224646799147353454E-16 ) ) ;
#107 = CARTESIAN_POINT ( 'NONE',  ( 1.047444401652940007E-13, -2.299999999999939426, 30.00000000000000000 ) ) ;
#108 = CARTESIAN_POINT ( 'NONE',  ( -3.491481338843130200E-15, -1.224646799147353059E-15, -0.9999999999999991118 ) ) ;
#109 = DIRECTION ( 'NONE',  ( -4.354276396005969196E-30, 1.000000000000000000, -1.225619847157539322E-15 ) ) ;
#110 = FACE_OUTER_BOUND ( 'NONE', #229, .T. ) ;
#111 = EDGE_LOOP ( 'NONE', ( #5 ) ) ;
#112 = CC_DESIGN_PERSON_AND_ORGANIZATION_ASSIGNMENT ( #216, #255, ( #215 ) ) ;
#113 = VERTEX_POINT ( 'NONE', #107 ) ;
#114 = ORIENTED_EDGE ( 'NONE', *, *, #100, .F. ) ;
#115 = DATE_AND_TIME ( #50, #185 ) ;
#116 = MANIFOLD_SOLID_BREP ( 'Corps-Déplacer/Copier1[2]', #143 ) ;
#117 = PERSON_AND_ORGANIZATION ( #23, #92 ) ;
#118 = AXIS2_PLACEMENT_3D ( 'NONE', #128, #125, #18 ) ;
#119 = AXIS2_PLACEMENT_3D ( 'NONE', #258, #184, #262 ) ;
#120 = ADVANCED_FACE ( 'NONE', ( #219, #33 ), #228, .T. ) ;
#121 = APPROVAL_DATE_TIME ( #29, #182 ) ;
#122 = PERSON_AND_ORGANIZATION_ROLE ( 'classification_officer' ) ;
#123 = CC_DESIGN_APPROVAL ( #64, ( #40 ) ) ;
#124 = CIRCLE ( 'NONE', #169, 2.299999999999954081 ) ;
#125 = DIRECTION ( 'NONE',  ( 3.491481338843133355E-15, 1.224646799147354045E-15, 1.000000000000000000 ) ) ;
#126 = ADVANCED_FACE ( 'NONE', ( #203, #181 ), #63, .T. ) ;
#127 = FACE_OUTER_BOUND ( 'NONE', #67, .T. ) ;
#128 = CARTESIAN_POINT ( 'NONE',  ( 1.259672732077324182E-13, 4.418337174394982301E-14, 36.07846096908265565 ) ) ;
#129 = FACE_OUTER_BOUND ( 'NONE', #94, .T. ) ;
#130 = CARTESIAN_POINT ( 'NONE',  ( 2.350971269544385286E-15, 8.246097174011780673E-16, 0.6733449333924711455 ) ) ;
#131 = CARTESIAN_POINT ( 'NONE',  ( 2.304377683636468267E-13, 1.724723750061123933E-32, 66.00000000000000000 ) ) ;
#132 = CARTESIAN_POINT ( 'NONE',  ( 1.047444401652940007E-13, -2.299999999999939426, 30.00000000000000000 ) ) ;
#133 = ORIENTED_EDGE ( 'NONE', *, *, #225, .F. ) ;
#134 = LOCAL_TIME ( 11, 34, 7.000000000000000000, #177 ) ;
#135 = CYLINDRICAL_SURFACE ( 'NONE', #14, 2.299999999999976286 ) ;
#136 = EDGE_LOOP ( 'NONE', ( #247 ) ) ;
#137 = COORDINATED_UNIVERSAL_TIME_OFFSET ( 1, 0, .AHEAD. ) ;
#138 = DIRECTION ( 'NONE',  ( 0.0000000000000000000, 0.0000000000000000000, 1.000000000000000000 ) ) ;
#139 = EDGE_CURVE ( 'NONE', #25, #25, #98, .T. ) ;
#140 = CALENDAR_DATE ( 2021, 15, 10 ) ;
#141 = APPROVAL_PERSON_ORGANIZATION ( #71, #64, #178 ) ;
#142 = DIRECTION ( 'NONE',  ( -4.275831445896958607E-31, -1.000000000000000000, -1.224646799147353207E-16 ) ) ;
#143 = CLOSED_SHELL ( 'NONE', ( #226, #246, #126, #1 ) ) ;
#144 = CC_DESIGN_APPROVAL ( #182, ( #11 ) ) ;
#145 = CARTESIAN_POINT ( 'NONE',  ( 2.350971269544385286E-15, 8.246097174011780673E-16, 0.6733449333924711455 ) ) ;
#146 = DIRECTION ( 'NONE',  ( -3.491481338843133355E-15, 1.224646799147353207E-16, -1.000000000000000000 ) ) ;
#147 = APPLICATION_CONTEXT ( 'configuration controlled 3d designs of mechanical parts and assemblies' ) ;
#148 = CARTESIAN_POINT ( 'NONE',  ( 1.187103655206665341E-13, 4.163799117101004504E-14, 34.00000000000000000 ) ) ;
#149 = AXIS2_PLACEMENT_3D ( 'NONE', #60, #146, #19 ) ;
#150 = AXIS2_PLACEMENT_3D ( 'NONE', #93, #47, #20 ) ;
#151 = ORIENTED_EDGE ( 'NONE', *, *, #263, .T. ) ;
#152 = VERTEX_POINT ( 'NONE', #132 ) ;
#153 = ORIENTED_EDGE ( 'NONE', *, *, #233, .T. ) ;
#154 = LOCAL_TIME ( 11, 34, 7.000000000000000000, #199 ) ;
#155 = CALENDAR_DATE ( 2021, 15, 10 ) ;
#156 = EDGE_LOOP ( 'NONE', ( #133 ) ) ;
#157 = APPLICATION_PROTOCOL_DEFINITION ( 'international standard', 'config_control_design', 1994, #147 ) ;
#158 = APPLICATION_CONTEXT ( 'configuration controlled 3d designs of mechanical parts and assemblies' ) ;
#159 = CYLINDRICAL_SURFACE ( 'NONE', #78, 2.999999999999997780 ) ;
#160 = APPROVAL_STATUS ( 'not_yet_approved' ) ;
#161 = FACE_OUTER_BOUND ( 'NONE', #111, .T. ) ;
#162 = DIRECTION ( 'NONE',  ( -3.491481338843133355E-15, 1.224646799147353207E-16, -1.000000000000000000 ) ) ;
#163 = DIRECTION ( 'NONE',  ( -3.491481338843133355E-15, -1.224646799147354045E-15, -1.000000000000000000 ) ) ;
#164 = ORIENTED_EDGE ( 'NONE', *, *, #44, .F. ) ;
#165 = APPROVAL_PERSON_ORGANIZATION ( #239, #198, #179 ) ;
#166 = DIRECTION ( 'NONE',  ( -4.354276396005969196E-30, 1.000000000000000000, -1.225619847157539322E-15 ) ) ;
#167 = VERTEX_POINT ( 'NONE', #191 ) ;
#168 = EDGE_LOOP ( 'NONE', ( #114 ) ) ;
#169 = AXIS2_PLACEMENT_3D ( 'NONE', #148, #41, #171 ) ;
#170 = PRODUCT_RELATED_PRODUCT_CATEGORY ( 'detail', '', ( #24 ) ) ;
#171 = DIRECTION ( 'NONE',  ( 0.0000000000000000000, 1.000000000000000000, 0.0000000000000000000 ) ) ;
#172 = DIRECTION ( 'NONE',  ( -3.491481338843133355E-15, 1.224646799147353207E-16, -1.000000000000000000 ) ) ;
#173 = ORIENTED_EDGE ( 'NONE', *, *, #77, .F. ) ;
#174 = DATE_AND_TIME ( #155, #65 ) ;
#175 = PLANE ( 'NONE',  #84 ) ;
#176 = FACE_OUTER_BOUND ( 'NONE', #249, .T. ) ;
#177 = COORDINATED_UNIVERSAL_TIME_OFFSET ( 1, 0, .AHEAD. ) ;
#178 = APPROVAL_ROLE ( '' ) ;
#179 = APPROVAL_ROLE ( '' ) ;
#180 = ADVANCED_FACE ( 'NONE', ( #127, #17 ), #195, .T. ) ;
#181 = FACE_OUTER_BOUND ( 'NONE', #188, .T. ) ;
#182 = APPROVAL ( #160, 'UNSPECIFIED' ) ;
#183 =( GEOMETRIC_REPRESENTATION_CONTEXT ( 3 ) GLOBAL_UNCERTAINTY_ASSIGNED_CONTEXT ( ( #245 ) ) GLOBAL_UNIT_ASSIGNED_CONTEXT ( ( #66, #15, #236 ) ) REPRESENTATION_CONTEXT ( 'NONE', 'WORKASPACE' ) );
#184 = DIRECTION ( 'NONE',  ( 3.491481338843133355E-15, 1.224646799147354045E-15, 1.000000000000000000 ) ) ;
#185 = LOCAL_TIME ( 11, 34, 7.000000000000000000, #257 ) ;
#186 = CARTESIAN_POINT ( 'NONE',  ( 2.304377683636468267E-13, 2.299999999999992273, 66.00000000000000000 ) ) ;
#187 = ADVANCED_FACE ( 'NONE', ( #48 ), #175, .F. ) ;
#188 = EDGE_LOOP ( 'NONE', ( #151 ) ) ;
#189 = VERTEX_POINT ( 'NONE', #89 ) ;
#190 = ORIENTED_EDGE ( 'NONE', *, *, #77, .T. ) ;
#191 = CARTESIAN_POINT ( 'NONE',  ( 1.229435616714552926E-13, -2.999999999999955147, 35.21243556529829988 ) ) ;
#192 = EDGE_LOOP ( 'NONE', ( #96 ) ) ;
#193 = APPROVAL_ROLE ( '' ) ;
#194 = CC_DESIGN_PERSON_AND_ORGANIZATION_ASSIGNMENT ( #76, #75, ( #24 ) ) ;
#195 = CONICAL_SURFACE ( 'NONE', #54, 2.300000000000000266, 0.7853981633974437271 ) ;
#196 = PERSON_AND_ORGANIZATION_ROLE ( 'creator' ) ;
#197 = APPROVAL_STATUS ( 'not_yet_approved' ) ;
#198 = APPROVAL ( #97, 'UNSPECIFIED' ) ;
#199 = COORDINATED_UNIVERSAL_TIME_OFFSET ( 1, 0, .AHEAD. ) ;
#200 = PRODUCT_DEFINITION_SHAPE ( 'NONE', 'NONE',  #40 ) ;
#201 = COORDINATED_UNIVERSAL_TIME_OFFSET ( 1, 0, .AHEAD. ) ;
#202 = CIRCLE ( 'NONE', #149, 2.299999999999976286 ) ;
#203 = FACE_BOUND ( 'NONE', #7, .T. ) ;
#204 = DIRECTION ( 'NONE',  ( 0.0000000000000000000, -1.000000000000000000, 0.0000000000000000000 ) ) ;
#205 = EDGE_CURVE ( 'NONE', #95, #95, #254, .T. ) ;
#206 = CLOSED_SHELL ( 'NONE', ( #86, #180, #187, #238, #120, #51 ) ) ;
#207 = MANIFOLD_SOLID_BREP ( 'Corps-Déplacer/Copier1[1]', #206 ) ;
#208 = DIRECTION ( 'NONE',  ( -4.275831445896958607E-31, -1.000000000000000000, -1.224646799147353207E-16 ) ) ;
#209 = DIRECTION ( 'NONE',  ( 4.372381495365618766E-30, -1.000000000000000000, 1.230715979578140797E-15 ) ) ;
#210 = CARTESIAN_POINT ( 'NONE',  ( 2.350971269544377397E-15, 1.850000000000000089, 0.6733449333924689251 ) ) ;
#211 = ORIENTED_EDGE ( 'NONE', *, *, #225, .T. ) ;
#212 = ORIENTED_EDGE ( 'NONE', *, *, #205, .T. ) ;
#213 = CC_DESIGN_DATE_AND_TIME_ASSIGNMENT ( #32, #55, ( #40 ) ) ;
#214 = CALENDAR_DATE ( 2021, 15, 10 ) ;
#215 = PRODUCT_DEFINITION_FORMATION_WITH_SPECIFIED_SOURCE ( 'ANY', '', #24, .NOT_KNOWN. ) ;
#216 = PERSON_AND_ORGANIZATION ( #23, #92 ) ;
#217 = CC_DESIGN_DATE_AND_TIME_ASSIGNMENT ( #115, #28, ( #11 ) ) ;
#218 = SECURITY_CLASSIFICATION_LEVEL ( 'unclassified' ) ;
#219 = FACE_BOUND ( 'NONE', #156, .T. ) ;
#220 = DIRECTION ( 'NONE',  ( 1.000000000000000000, 0.0000000000000000000, 0.0000000000000000000 ) ) ;
#221 = FACE_OUTER_BOUND ( 'NONE', #46, .T. ) ;
#222 = CC_DESIGN_SECURITY_CLASSIFICATION ( #11, ( #215 ) ) ;
#223 = DIRECTION ( 'NONE',  ( -4.372381495365618766E-30, 1.000000000000000000, -1.230715979578140797E-15 ) ) ;
#224 = DIRECTION ( 'NONE',  ( 0.0000000000000000000, 1.000000000000000000, 0.0000000000000000000 ) ) ;
#225 = EDGE_CURVE ( 'NONE', #189, #189, #124, .T. ) ;
#226 = ADVANCED_FACE ( 'NONE', ( #129 ), #62, .T. ) ;
#227 = FACE_OUTER_BOUND ( 'NONE', #69, .T. ) ;
#228 = CONICAL_SURFACE ( 'NONE', #118, 3.499999999999950262, 0.5235987755982977054 ) ;
#229 = EDGE_LOOP ( 'NONE', ( #211 ) ) ;
#230 = CARTESIAN_POINT ( 'NONE',  ( 3.186375370794195937E-15, 2.299999999999999822, 0.9126141776401328620 ) ) ;
#231 = CARTESIAN_POINT ( 'NONE',  ( -3.491481338843130200E-15, -1.224646799147353059E-15, -0.9999999999999991118 ) ) ;
#232 = AXIS2_PLACEMENT_3D ( 'NONE', #145, #163, #223 ) ;
#233 = EDGE_CURVE ( 'NONE', #167, #167, #234, .T. ) ;
#234 = CIRCLE ( 'NONE', #150, 2.999999999999997780 ) ;
#235 = PERSON_AND_ORGANIZATION ( #23, #92 ) ;
#236 =( NAMED_UNIT ( * ) SI_UNIT ( $, .STERADIAN. ) SOLID_ANGLE_UNIT ( ) );
#237 = MECHANICAL_CONTEXT ( 'NONE', #158, 'mechanical' ) ;
#238 = ADVANCED_FACE ( 'NONE', ( #110, #88 ), #135, .T. ) ;
#239 = PERSON_AND_ORGANIZATION ( #23, #92 ) ;
#240 = DIRECTION ( 'NONE',  ( -3.491481338843133355E-15, 1.224646799147353207E-16, -1.000000000000000000 ) ) ;
#241 = CARTESIAN_POINT ( 'NONE',  ( 0.0000000000000000000, 0.0000000000000000000, 0.0000000000000000000 ) ) ;
#242 = APPROVAL_DATE_TIME ( #174, #64 ) ;
#243 = DIRECTION ( 'NONE',  ( 3.491481338843133355E-15, -1.224646799147353207E-16, 1.000000000000000000 ) ) ;
#244 = LOCAL_TIME ( 11, 34, 7.000000000000000000, #137 ) ;
#245 = UNCERTAINTY_MEASURE_WITH_UNIT (LENGTH_MEASURE( 1.000000000000000082E-05 ), #66, 'distance_accuracy_value', 'NONE');
#246 = ADVANCED_FACE ( 'NONE', ( #227 ), #104, .T. ) ;
#247 = ORIENTED_EDGE ( 'NONE', *, *, #263, .F. ) ;
#248 = DIRECTION ( 'NONE',  ( 3.491481338843133355E-15, 1.224646799147354045E-15, 1.000000000000000000 ) ) ;
#249 = EDGE_LOOP ( 'NONE', ( #190 ) ) ;
#250 = DIRECTION ( 'NONE',  ( 0.0000000000000000000, 1.000000000000000000, 0.0000000000000000000 ) ) ;
#251 = FACE_OUTER_BOUND ( 'NONE', #136, .T. ) ;
#252 = CALENDAR_DATE ( 2021, 15, 10 ) ;
#253 = EDGE_LOOP ( 'NONE', ( #212 ) ) ;
#254 = CIRCLE ( 'NONE', #261, 3.000000000000000000 ) ;
#255 = PERSON_AND_ORGANIZATION_ROLE ( 'creator' ) ;
#256 = AXIS2_PLACEMENT_3D ( 'NONE', #21, #43, #68 ) ;
#257 = COORDINATED_UNIVERSAL_TIME_OFFSET ( 1, 0, .AHEAD. ) ;
#258 = CARTESIAN_POINT ( 'NONE',  ( 3.186375370794205798E-15, 1.117630031503486818E-15, 0.9126141776401356376 ) ) ;
#259 = DIRECTION ( 'NONE',  ( 4.275831445896958607E-31, 1.000000000000000000, 1.224646799147353207E-16 ) ) ;
#260 = FACE_OUTER_BOUND ( 'NONE', #253, .T. ) ;
#261 = AXIS2_PLACEMENT_3D ( 'NONE', #82, #162, #224 ) ;
#262 = DIRECTION ( 'NONE',  ( 4.354276396005928558E-30, -1.000000000000000000, 1.225619847157527883E-15 ) ) ;
#263 = EDGE_CURVE ( 'NONE', #6, #6, #79, .T. ) ;
ENDSEC;
END-ISO-10303-21;
