ISO-10303-21;
HEADER;
FILE_DESCRIPTION (( 'STEP AP203' ),
    '1' );
FILE_NAME ('62859.step',
    '2021-10-15T09:34:07',
    ( '' ),
    ( '' ),
    'SwSTEP 2.0',
    'SolidWorks 2019',
    '' );
FILE_SCHEMA (( 'CONFIG_CONTROL_DESIGN' ));
ENDSEC;

DATA;
#1 = ADVANCED_FACE ( 'NONE', ( #74 ), #258, .F. ) ;
#2 = FACE_OUTER_BOUND ( 'NONE', #164, .T. ) ;
#3 = AXIS2_PLACEMENT_3D ( 'NONE', #152, #59, #171 ) ;
#4 = AXIS2_PLACEMENT_3D ( 'NONE', #48, #87, #67 ) ;
#5 = FACE_BOUND ( 'NONE', #210, .T. ) ;
#6 = ADVANCED_FACE ( 'NONE', ( #256 ), #118, .F. ) ;
#7 = DIRECTION ( 'NONE',  ( 4.279844320860527699E-30, -1.000000000000000000, 1.204669080539450379E-15 ) ) ;
#8 = ORIENTED_EDGE ( 'NONE', *, *, #183, .F. ) ;
#9 = PRODUCT_DEFINITION_FORMATION_WITH_SPECIFIED_SOURCE ( 'ANY', '', #189, .NOT_KNOWN. ) ;
#10 = ORIENTED_EDGE ( 'NONE', *, *, #17, .F. ) ;
#11 = AXIS2_PLACEMENT_3D ( 'NONE', #18, #240, #39 ) ;
#12 = EDGE_LOOP ( 'NONE', ( #130 ) ) ;
#13 = FACE_OUTER_BOUND ( 'NONE', #148, .T. ) ;
#14 = CARTESIAN_POINT ( 'NONE',  ( -3.491481338843130200E-15, -1.224646799147353059E-15, -0.9999999999999991118 ) ) ;
#15 =( NAMED_UNIT ( * ) PLANE_ANGLE_UNIT ( ) SI_UNIT ( $, .RADIAN. ) );
#16 = AXIS2_PLACEMENT_3D ( 'NONE', #223, #41, #235 ) ;
#17 = EDGE_CURVE ( 'NONE', #181, #181, #161, .T. ) ;
#18 = CARTESIAN_POINT ( 'NONE',  ( 3.122835606752465623E-15, 1.095343282384535974E-15, 0.8944156659268255316 ) ) ;
#19 = DIRECTION ( 'NONE',  ( 3.491481338843133355E-15, -1.224646799147353207E-16, 1.000000000000000000 ) ) ;
#20 = CONICAL_SURFACE ( 'NONE', #184, 2.249999999999998224, 1.082104136236484937 ) ;
#21 = VERTEX_POINT ( 'NONE', #145 ) ;
#22 = DIRECTION ( 'NONE',  ( 3.491481338843133355E-15, 1.224646799147354045E-15, 1.000000000000000000 ) ) ;
#23 = PERSON_AND_ORGANIZATION ( #166, #144 ) ;
#24 = DIRECTION ( 'NONE',  ( 0.0000000000000000000, 1.000000000000000000, 0.0000000000000000000 ) ) ;
#25 = CC_DESIGN_APPROVAL ( #86, ( #29 ) ) ;
#26 = MANIFOLD_SOLID_BREP ( 'Corps-Déplacer/Copier1[1]', #63 ) ;
#27 = VERTEX_POINT ( 'NONE', #107 ) ;
#28 = ORIENTED_EDGE ( 'NONE', *, *, #33, .F. ) ;
#29 = SECURITY_CLASSIFICATION ( '', '', #243 ) ;
#30 = ORIENTED_EDGE ( 'NONE', *, *, #253, .F. ) ;
#31 = CARTESIAN_POINT ( 'NONE',  ( 2.279937314264566018E-13, 2.999999999999992450, 65.29999999999999716 ) ) ;
#32 = EDGE_LOOP ( 'NONE', ( #192 ) ) ;
#33 = EDGE_CURVE ( 'NONE', #162, #162, #46, .T. ) ;
#34 = LOCAL_TIME ( 11, 34, 7.000000000000000000, #94 ) ;
#35 = COORDINATED_UNIVERSAL_TIME_OFFSET ( 1, 0, .AHEAD. ) ;
#36 = ORIENTED_EDGE ( 'NONE', *, *, #142, .F. ) ;
#37 = DIRECTION ( 'NONE',  ( -3.491481338843133355E-15, 1.224646799147353207E-16, -1.000000000000000000 ) ) ;
#38 = APPLICATION_PROTOCOL_DEFINITION ( 'international standard', 'config_control_design', 1994, #187 ) ;
#39 = DIRECTION ( 'NONE',  ( -4.279844320860526998E-30, 1.000000000000000000, -1.204669080539450182E-15 ) ) ;
#40 = DATE_AND_TIME ( #227, #207 ) ;
#41 = DIRECTION ( 'NONE',  ( -3.491481338843133355E-15, 1.224646799147353207E-16, -1.000000000000000000 ) ) ;
#42 = DATE_AND_TIME ( #215, #204 ) ;
#43 = DIRECTION ( 'NONE',  ( 3.491481338843133355E-15, 1.224646799147354045E-15, 1.000000000000000000 ) ) ;
#44 = CC_DESIGN_PERSON_AND_ORGANIZATION_ASSIGNMENT ( #150, #131, ( #189 ) ) ;
#45 = APPROVAL_ROLE ( '' ) ;
#46 = CIRCLE ( 'NONE', #11, 2.249999999999998668 ) ;
#47 = VERTEX_POINT ( 'NONE', #248 ) ;
#48 = CARTESIAN_POINT ( 'NONE',  ( 1.262696443613601813E-13, 4.428942926782231166E-14, 36.16506350946109904 ) ) ;
#49 = CARTESIAN_POINT ( 'NONE',  ( 0.0000000000000000000, 0.0000000000000000000, 0.0000000000000000000 ) ) ;
#50 = AXIS2_PLACEMENT_3D ( 'NONE', #200, #19, #169 ) ;
#51 = EDGE_CURVE ( 'NONE', #246, #246, #213, .T. ) ;
#52 = EDGE_LOOP ( 'NONE', ( #28 ) ) ;
#53 = CIRCLE ( 'NONE', #76, 3.000000000000000000 ) ;
#54 = DIRECTION ( 'NONE',  ( -4.279844320860526298E-30, 1.000000000000000000, -1.204669080539449985E-15 ) ) ;
#55 = PERSON_AND_ORGANIZATION_ROLE ( 'creator' ) ;
#56 = FACE_OUTER_BOUND ( 'NONE', #70, .T. ) ;
#57 = ADVANCED_FACE ( 'NONE', ( #237, #115 ), #95, .T. ) ;
#58 = DIRECTION ( 'NONE',  ( 1.000000000000000000, 0.0000000000000000000, 0.0000000000000000000 ) ) ;
#59 = DIRECTION ( 'NONE',  ( 3.491481338843133355E-15, -1.224646799147353207E-16, 1.000000000000000000 ) ) ;
#60 = CC_DESIGN_APPROVAL ( #249, ( #9 ) ) ;
#61 = SHAPE_DEFINITION_REPRESENTATION ( #110, #88 ) ;
#62 = PERSON_AND_ORGANIZATION ( #166, #144 ) ;
#63 = CLOSED_SHELL ( 'NONE', ( #259, #212, #1, #57, #247, #6 ) ) ;
#64 = CARTESIAN_POINT ( 'NONE',  ( 2.287431505502637222E-15, 1.800000000000000044, 0.6551464216791587081 ) ) ;
#65 = ADVANCED_FACE ( 'NONE', ( #154, #99 ), #219, .T. ) ;
#66 = VERTEX_POINT ( 'NONE', #203 ) ;
#67 = DIRECTION ( 'NONE',  ( 7.043400939473419384E-30, -1.000000000000000000, 1.982541115402093312E-15 ) ) ;
#68 = APPROVAL_PERSON_ORGANIZATION ( #155, #86, #182 ) ;
#69 = ADVANCED_FACE ( 'NONE', ( #56 ), #128, .T. ) ;
#70 = EDGE_LOOP ( 'NONE', ( #208 ) ) ;
#71 = EDGE_LOOP ( 'NONE', ( #251 ) ) ;
#72 = DATE_AND_TIME ( #77, #34 ) ;
#73 = EDGE_LOOP ( 'NONE', ( #112 ) ) ;
#74 = FACE_OUTER_BOUND ( 'NONE', #167, .T. ) ;
#75 = CARTESIAN_POINT ( 'NONE',  ( 1.047444401652940007E-13, 3.673940397442062649E-14, 30.00000000000000000 ) ) ;
#76 = AXIS2_PLACEMENT_3D ( 'NONE', #201, #93, #24 ) ;
#77 = CALENDAR_DATE ( 2021, 15, 10 ) ;
#78 = CARTESIAN_POINT ( 'NONE',  ( -3.491481338843130200E-15, -1.224646799147353059E-15, -0.9999999999999991118 ) ) ;
#79 = PRODUCT_RELATED_PRODUCT_CATEGORY ( 'detail', '', ( #189 ) ) ;
#80 = APPROVAL_DATE_TIME ( #40, #86 ) ;
#81 = DIRECTION ( 'NONE',  ( 0.0000000000000000000, 1.000000000000000000, 0.0000000000000000000 ) ) ;
#82 = FACE_BOUND ( 'NONE', #190, .T. ) ;
#83 = FACE_BOUND ( 'NONE', #234, .T. ) ;
#84 = AXIS2_PLACEMENT_3D ( 'NONE', #217, #97, #54 ) ;
#85 = FACE_OUTER_BOUND ( 'NONE', #186, .T. ) ;
#86 = APPROVAL ( #224, 'UNSPECIFIED' ) ;
#87 = DIRECTION ( 'NONE',  ( 3.491481338843133355E-15, 1.224646799147354045E-15, 1.000000000000000000 ) ) ;
#88 = ADVANCED_BREP_SHAPE_REPRESENTATION ( '62859', ( #26, #108, #123 ), #136 ) ;
#89 = CARTESIAN_POINT ( 'NONE',  ( 3.122835606752456157E-15, 2.250000000000000000, 0.8944156659268228671 ) ) ;
#90 = APPROVAL ( #199, 'UNSPECIFIED' ) ;
#91 = ORIENTED_EDGE ( 'NONE', *, *, #142, .T. ) ;
#92 = CC_DESIGN_SECURITY_CLASSIFICATION ( #29, ( #9 ) ) ;
#93 = DIRECTION ( 'NONE',  ( -3.491481338843133355E-15, 1.224646799147353207E-16, -1.000000000000000000 ) ) ;
#94 = COORDINATED_UNIVERSAL_TIME_OFFSET ( 1, 0, .AHEAD. ) ;
#95 = CYLINDRICAL_SURFACE ( 'NONE', #104, 2.249999999999976019 ) ;
#96 = ADVANCED_FACE ( 'NONE', ( #13 ), #120, .T. ) ;
#97 = DIRECTION ( 'NONE',  ( -3.491481338843133355E-15, -1.224646799147354045E-15, -1.000000000000000000 ) ) ;
#98 = AXIS2_PLACEMENT_3D ( 'NONE', #254, #220, #197 ) ;
#99 = FACE_OUTER_BOUND ( 'NONE', #52, .T. ) ;
#100 = APPROVAL_DATE_TIME ( #176, #249 ) ;
#101 = CARTESIAN_POINT ( 'NONE',  ( 1.187103655206665341E-13, 4.163799117101004504E-14, 34.00000000000000000 ) ) ;
#102 = EDGE_CURVE ( 'NONE', #47, #47, #226, .T. ) ;
#103 = COORDINATED_UNIVERSAL_TIME_OFFSET ( 1, 0, .AHEAD. ) ;
#104 = AXIS2_PLACEMENT_3D ( 'NONE', #14, #195, #133 ) ;
#105 = FACE_OUTER_BOUND ( 'NONE', #32, .T. ) ;
#106 = FACE_OUTER_BOUND ( 'NONE', #12, .T. ) ;
#107 = CARTESIAN_POINT ( 'NONE',  ( 1.232459328250830304E-13, -2.999999999999954703, 35.29903810567674327 ) ) ;
#108 = MANIFOLD_SOLID_BREP ( 'Corps-Déplacer/Copier1[2]', #211 ) ;
#109 = CONICAL_SURFACE ( 'NONE', #198, 2.300000000000000266, 0.7853981633974437271 ) ;
#110 = PRODUCT_DEFINITION_SHAPE ( 'NONE', 'NONE',  #196 ) ;
#111 = ORIENTED_EDGE ( 'NONE', *, *, #102, .T. ) ;
#112 = ORIENTED_EDGE ( 'NONE', *, *, #17, .T. ) ;
#113 = AXIS2_PLACEMENT_3D ( 'NONE', #151, #156, #241 ) ;
#114 = MECHANICAL_CONTEXT ( 'NONE', #216, 'mechanical' ) ;
#115 = FACE_OUTER_BOUND ( 'NONE', #238, .T. ) ;
#116 = ORIENTED_EDGE ( 'NONE', *, *, #51, .F. ) ;
#117 = APPROVAL_ROLE ( '' ) ;
#118 = PLANE ( 'NONE',  #3 ) ;
#119 = AXIS2_PLACEMENT_3D ( 'NONE', #49, #206, #125 ) ;
#120 = PLANE ( 'NONE',  #50 ) ;
#121 = PERSON_AND_ORGANIZATION_ROLE ( 'classification_officer' ) ;
#122 = CYLINDRICAL_SURFACE ( 'NONE', #119, 2.999999999999997780 ) ;
#123 = AXIS2_PLACEMENT_3D ( 'NONE', #239, #129, #58 ) ;
#124 = CARTESIAN_POINT ( 'NONE',  ( 2.304377683636468267E-13, -8.082668874372532400E-15, 66.00000000000000000 ) ) ;
#125 = DIRECTION ( 'NONE',  ( 4.275831445896958607E-31, 1.000000000000000000, 1.224646799147353454E-16 ) ) ;
#126 = ORIENTED_EDGE ( 'NONE', *, *, #33, .T. ) ;
#127 = EDGE_LOOP ( 'NONE', ( #111 ) ) ;
#128 = CONICAL_SURFACE ( 'NONE', #221, 1.799999999999998934, 1.221730476396032161 ) ;
#129 = DIRECTION ( 'NONE',  ( 0.0000000000000000000, 0.0000000000000000000, 1.000000000000000000 ) ) ;
#130 = ORIENTED_EDGE ( 'NONE', *, *, #188, .F. ) ;
#131 = PERSON_AND_ORGANIZATION_ROLE ( 'design_owner' ) ;
#132 = PERSON_AND_ORGANIZATION ( #166, #144 ) ;
#133 = DIRECTION ( 'NONE',  ( -4.108650548026147061E-30, 1.000000000000000000, -1.252855843761040669E-15 ) ) ;
#134 = PERSON_AND_ORGANIZATION ( #166, #144 ) ;
#135 = DIRECTION ( 'NONE',  ( 3.491481338843133355E-15, 1.224646799147354045E-15, 1.000000000000000000 ) ) ;
#136 =( GEOMETRIC_REPRESENTATION_CONTEXT ( 3 ) GLOBAL_UNCERTAINTY_ASSIGNED_CONTEXT ( ( #175 ) ) GLOBAL_UNIT_ASSIGNED_CONTEXT ( ( #233, #15, #260 ) ) REPRESENTATION_CONTEXT ( 'NONE', 'WORKASPACE' ) );
#137 = DIRECTION ( 'NONE',  ( 0.0000000000000000000, -1.000000000000000000, 0.0000000000000000000 ) ) ;
#138 = CALENDAR_DATE ( 2021, 15, 10 ) ;
#139 = DIRECTION ( 'NONE',  ( 0.0000000000000000000, 1.000000000000000000, 0.0000000000000000000 ) ) ;
#140 = PERSON_AND_ORGANIZATION ( #166, #144 ) ;
#141 = DIRECTION ( 'NONE',  ( -3.491481338843133355E-15, 1.224646799147353207E-16, -1.000000000000000000 ) ) ;
#142 = EDGE_CURVE ( 'NONE', #66, #66, #230, .T. ) ;
#143 = COORDINATED_UNIVERSAL_TIME_OFFSET ( 1, 0, .AHEAD. ) ;
#144 = ORGANIZATION ( 'UNSPECIFIED', 'UNSPECIFIED', '' ) ;
#145 = CARTESIAN_POINT ( 'NONE',  ( 1.047444401652940007E-13, -2.249999999999939160, 30.00000000000000000 ) ) ;
#146 = APPROVAL_PERSON_ORGANIZATION ( #134, #90, #117 ) ;
#147 = ORIENTED_EDGE ( 'NONE', *, *, #102, .F. ) ;
#148 = EDGE_LOOP ( 'NONE', ( #8 ) ) ;
#149 = AXIS2_PLACEMENT_3D ( 'NONE', #75, #37, #137 ) ;
#150 = PERSON_AND_ORGANIZATION ( #166, #144 ) ;
#151 = CARTESIAN_POINT ( 'NONE',  ( 2.304377683636468267E-13, -8.082668874372532400E-15, 66.00000000000000000 ) ) ;
#152 = CARTESIAN_POINT ( 'NONE',  ( 1.047444401652940007E-13, 2.249639673992777927E-32, 30.00000000000000000 ) ) ;
#153 = APPROVAL_PERSON_ORGANIZATION ( #160, #249, #45 ) ;
#154 = FACE_OUTER_BOUND ( 'NONE', #71, .T. ) ;
#155 = PERSON_AND_ORGANIZATION ( #166, #144 ) ;
#156 = DIRECTION ( 'NONE',  ( -3.491481338843133355E-15, 1.224646799147353207E-16, -1.000000000000000000 ) ) ;
#157 = COORDINATED_UNIVERSAL_TIME_OFFSET ( 1, 0, .AHEAD. ) ;
#158 = FACE_OUTER_BOUND ( 'NONE', #177, .T. ) ;
#159 = CARTESIAN_POINT ( 'NONE',  ( 1.047444401652940007E-13, -2.249999999999939160, 30.00000000000000000 ) ) ;
#160 = PERSON_AND_ORGANIZATION ( #166, #144 ) ;
#161 = CIRCLE ( 'NONE', #149, 2.249999999999976019 ) ;
#162 = VERTEX_POINT ( 'NONE', #89 ) ;
#163 = CC_DESIGN_PERSON_AND_ORGANIZATION_ASSIGNMENT ( #23, #262, ( #9 ) ) ;
#164 = EDGE_LOOP ( 'NONE', ( #214 ) ) ;
#165 = LOCAL_TIME ( 11, 34, 7.000000000000000000, #143 ) ;
#166 = PERSON ( 'UNSPECIFIED', 'UNSPECIFIED', 'UNSPECIFIED', ('UNSPECIFIED'), ('UNSPECIFIED'), ('UNSPECIFIED') ) ;
#167 = EDGE_LOOP ( 'NONE', ( #36 ) ) ;
#168 = DIRECTION ( 'NONE',  ( 4.279844320860526998E-30, -1.000000000000000000, 1.204669080539450182E-15 ) ) ;
#169 = DIRECTION ( 'NONE',  ( -4.275831445896958607E-31, -1.000000000000000000, -1.224646799147353207E-16 ) ) ;
#170 = APPROVAL_DATE_TIME ( #72, #90 ) ;
#171 = DIRECTION ( 'NONE',  ( -4.275831445896958607E-31, -1.000000000000000000, -1.224646799147353207E-16 ) ) ;
#172 = APPLICATION_PROTOCOL_DEFINITION ( 'international standard', 'config_control_design', 1994, #216 ) ;
#173 = CARTESIAN_POINT ( 'NONE',  ( 2.287431505502644717E-15, 8.023229682822269276E-16, 0.6551464216791609285 ) ) ;
#174 = CC_DESIGN_PERSON_AND_ORGANIZATION_ASSIGNMENT ( #140, #121, ( #29 ) ) ;
#175 = UNCERTAINTY_MEASURE_WITH_UNIT (LENGTH_MEASURE( 1.000000000000000082E-05 ), #233, 'distance_accuracy_value', 'NONE');
#176 = DATE_AND_TIME ( #205, #165 ) ;
#177 = EDGE_LOOP ( 'NONE', ( #30 ) ) ;
#178 = CC_DESIGN_APPROVAL ( #90, ( #196 ) ) ;
#179 = APPROVAL_STATUS ( 'not_yet_approved' ) ;
#180 = VERTEX_POINT ( 'NONE', #31 ) ;
#181 = VERTEX_POINT ( 'NONE', #159 ) ;
#182 = APPROVAL_ROLE ( '' ) ;
#183 = EDGE_CURVE ( 'NONE', #21, #21, #242, .T. ) ;
#184 = AXIS2_PLACEMENT_3D ( 'NONE', #185, #22, #7 ) ;
#185 = CARTESIAN_POINT ( 'NONE',  ( 3.122835606752465623E-15, 1.095343282384535974E-15, 0.8944156659268255316 ) ) ;
#186 = EDGE_LOOP ( 'NONE', ( #126 ) ) ;
#187 = APPLICATION_CONTEXT ( 'configuration controlled 3d designs of mechanical parts and assemblies' ) ;
#188 = EDGE_CURVE ( 'NONE', #180, #180, #53, .T. ) ;
#189 = PRODUCT ( '62859', '62859', '', ( #114 ) ) ;
#190 = EDGE_LOOP ( 'NONE', ( #116 ) ) ;
#191 = CONICAL_SURFACE ( 'NONE', #4, 3.499999999999950262, 0.5235987755982982605 ) ;
#192 = ORIENTED_EDGE ( 'NONE', *, *, #188, .T. ) ;
#193 = AXIS2_PLACEMENT_3D ( 'NONE', #101, #261, #81 ) ;
#194 = DIRECTION ( 'NONE',  ( -3.491481338843133355E-15, -1.224646799147354045E-15, -1.000000000000000000 ) ) ;
#195 = DIRECTION ( 'NONE',  ( -3.491481338843133355E-15, -1.224646799147354045E-15, -1.000000000000000000 ) ) ;
#196 = PRODUCT_DEFINITION ( 'UNKNOWN', '', #9, #257 ) ;
#197 = DIRECTION ( 'NONE',  ( 4.275831445896958607E-31, 1.000000000000000000, 1.224646799147353207E-16 ) ) ;
#198 = AXIS2_PLACEMENT_3D ( 'NONE', #124, #141, #139 ) ;
#199 = APPROVAL_STATUS ( 'not_yet_approved' ) ;
#200 = CARTESIAN_POINT ( 'NONE',  ( 1.047444401652940007E-13, 2.249639673992777927E-32, 30.00000000000000000 ) ) ;
#201 = CARTESIAN_POINT ( 'NONE',  ( 2.279937314264566018E-13, -7.996943598432214956E-15, 65.29999999999999716 ) ) ;
#202 = CC_DESIGN_DATE_AND_TIME_ASSIGNMENT ( #263, #222, ( #29 ) ) ;
#203 = CARTESIAN_POINT ( 'NONE',  ( 2.304377683636468267E-13, 2.299999999999992273, 66.00000000000000000 ) ) ;
#204 = LOCAL_TIME ( 11, 34, 7.000000000000000000, #35 ) ;
#205 = CALENDAR_DATE ( 2021, 15, 10 ) ;
#206 = DIRECTION ( 'NONE',  ( -3.491481338843133355E-15, 1.224646799147353207E-16, -1.000000000000000000 ) ) ;
#207 = LOCAL_TIME ( 11, 34, 7.000000000000000000, #103 ) ;
#208 = ORIENTED_EDGE ( 'NONE', *, *, #51, .T. ) ;
#209 = CC_DESIGN_PERSON_AND_ORGANIZATION_ASSIGNMENT ( #62, #245, ( #9 ) ) ;
#210 = EDGE_LOOP ( 'NONE', ( #147 ) ) ;
#211 = CLOSED_SHELL ( 'NONE', ( #96, #69, #231, #65 ) ) ;
#212 = ADVANCED_FACE ( 'NONE', ( #106, #83 ), #109, .T. ) ;
#213 = CIRCLE ( 'NONE', #84, 1.799999999999999156 ) ;
#214 = ORIENTED_EDGE ( 'NONE', *, *, #253, .T. ) ;
#215 = CALENDAR_DATE ( 2021, 15, 10 ) ;
#216 = APPLICATION_CONTEXT ( 'configuration controlled 3d designs of mechanical parts and assemblies' ) ;
#217 = CARTESIAN_POINT ( 'NONE',  ( 2.287431505502644717E-15, 8.023229682822269276E-16, 0.6551464216791609285 ) ) ;
#218 = CC_DESIGN_PERSON_AND_ORGANIZATION_ASSIGNMENT ( #132, #55, ( #196 ) ) ;
#219 = CYLINDRICAL_SURFACE ( 'NONE', #236, 2.249999999999976019 ) ;
#220 = DIRECTION ( 'NONE',  ( -3.491481338843133355E-15, 1.224646799147353207E-16, -1.000000000000000000 ) ) ;
#221 = AXIS2_PLACEMENT_3D ( 'NONE', #173, #135, #168 ) ;
#222 = DATE_TIME_ROLE ( 'classification_date' ) ;
#223 = CARTESIAN_POINT ( 'NONE',  ( 1.047444401652940007E-13, 3.673940397442062649E-14, 30.00000000000000000 ) ) ;
#224 = APPROVAL_STATUS ( 'not_yet_approved' ) ;
#225 = CARTESIAN_POINT ( 'NONE',  ( 1.232459328250830051E-13, 4.322885402909750093E-14, 35.29903810567673617 ) ) ;
#226 = CIRCLE ( 'NONE', #193, 2.249999999999953815 ) ;
#227 = CALENDAR_DATE ( 2021, 15, 10 ) ;
#228 = CC_DESIGN_DATE_AND_TIME_ASSIGNMENT ( #42, #244, ( #196 ) ) ;
#229 = DIRECTION ( 'NONE',  ( 8.217301096052212846E-30, -1.000000000000000000, 2.312964634635744633E-15 ) ) ;
#230 = CIRCLE ( 'NONE', #113, 2.300000000000000266 ) ;
#231 = ADVANCED_FACE ( 'NONE', ( #82, #85 ), #20, .T. ) ;
#232 = LOCAL_TIME ( 11, 34, 7.000000000000000000, #157 ) ;
#233 =( LENGTH_UNIT ( ) NAMED_UNIT ( * ) SI_UNIT ( .MILLI., .METRE. ) );
#234 = EDGE_LOOP ( 'NONE', ( #91 ) ) ;
#235 = DIRECTION ( 'NONE',  ( 0.0000000000000000000, -1.000000000000000000, 0.0000000000000000000 ) ) ;
#236 = AXIS2_PLACEMENT_3D ( 'NONE', #78, #194, #252 ) ;
#237 = FACE_OUTER_BOUND ( 'NONE', #127, .T. ) ;
#238 = EDGE_LOOP ( 'NONE', ( #10 ) ) ;
#239 = CARTESIAN_POINT ( 'NONE',  ( 0.0000000000000000000, 0.0000000000000000000, 0.0000000000000000000 ) ) ;
#240 = DIRECTION ( 'NONE',  ( -3.491481338843133355E-15, -1.224646799147354045E-15, -1.000000000000000000 ) ) ;
#241 = DIRECTION ( 'NONE',  ( 0.0000000000000000000, 1.000000000000000000, 0.0000000000000000000 ) ) ;
#242 = CIRCLE ( 'NONE', #16, 2.249999999999976019 ) ;
#243 = SECURITY_CLASSIFICATION_LEVEL ( 'unclassified' ) ;
#244 = DATE_TIME_ROLE ( 'creation_date' ) ;
#245 = PERSON_AND_ORGANIZATION_ROLE ( 'creator' ) ;
#246 = VERTEX_POINT ( 'NONE', #64 ) ;
#247 = ADVANCED_FACE ( 'NONE', ( #5, #158 ), #191, .T. ) ;
#248 = CARTESIAN_POINT ( 'NONE',  ( 1.187103655206665341E-13, 2.249999999999995559, 34.00000000000000000 ) ) ;
#249 = APPROVAL ( #179, 'UNSPECIFIED' ) ;
#250 = AXIS2_PLACEMENT_3D ( 'NONE', #225, #43, #229 ) ;
#251 = ORIENTED_EDGE ( 'NONE', *, *, #183, .T. ) ;
#252 = DIRECTION ( 'NONE',  ( -4.108650548026147061E-30, 1.000000000000000000, -1.252855843761040669E-15 ) ) ;
#253 = EDGE_CURVE ( 'NONE', #27, #27, #255, .T. ) ;
#254 = CARTESIAN_POINT ( 'NONE',  ( 2.304377683636468267E-13, 1.724723750061123933E-32, 66.00000000000000000 ) ) ;
#255 = CIRCLE ( 'NONE', #250, 2.999999999999997780 ) ;
#256 = FACE_OUTER_BOUND ( 'NONE', #73, .T. ) ;
#257 = DESIGN_CONTEXT ( 'detailed design', #187, 'design' ) ;
#258 = PLANE ( 'NONE',  #98 ) ;
#259 = ADVANCED_FACE ( 'NONE', ( #2, #105 ), #122, .T. ) ;
#260 =( NAMED_UNIT ( * ) SI_UNIT ( $, .STERADIAN. ) SOLID_ANGLE_UNIT ( ) );
#261 = DIRECTION ( 'NONE',  ( -3.491481338843133355E-15, -1.224646799147354045E-15, -1.000000000000000000 ) ) ;
#262 = PERSON_AND_ORGANIZATION_ROLE ( 'design_supplier' ) ;
#263 = DATE_AND_TIME ( #138, #232 ) ;
ENDSEC;
END-ISO-10303-21;
