ISO-10303-21;
HEADER;
FILE_DESCRIPTION (( 'STEP AP203' ),
    '1' );
FILE_NAME ('62858.step',
    '2021-10-15T09:34:06',
    ( '' ),
    ( '' ),
    'SwSTEP 2.0',
    'SolidWorks 2019',
    '' );
FILE_SCHEMA (( 'CONFIG_CONTROL_DESIGN' ));
ENDSEC;

DATA;
#1 = APPLICATION_PROTOCOL_DEFINITION ( 'international standard', 'config_control_design', 1994, #231 ) ;
#2 = EDGE_LOOP ( 'NONE', ( #244 ) ) ;
#3 = MANIFOLD_SOLID_BREP ( 'Corps-Déplacer/Copier1[1]', #38 ) ;
#4 = DATE_AND_TIME ( #240, #218 ) ;
#5 = ORIENTED_EDGE ( 'NONE', *, *, #96, .F. ) ;
#6 = AXIS2_PLACEMENT_3D ( 'NONE', #235, #141, #20 ) ;
#7 = COORDINATED_UNIVERSAL_TIME_OFFSET ( 1, 0, .AHEAD. ) ;
#8 = EDGE_LOOP ( 'NONE', ( #180 ) ) ;
#9 = PERSON_AND_ORGANIZATION_ROLE ( 'creator' ) ;
#10 = CIRCLE ( 'NONE', #21, 2.182499999999998774 ) ;
#11 = DIRECTION ( 'NONE',  ( -3.491481338843133355E-15, -1.224646799147354045E-15, -1.000000000000000000 ) ) ;
#12 = CARTESIAN_POINT ( 'NONE',  ( 1.236541338824804588E-13, 4.337203168632536692E-14, 35.41595153518763794 ) ) ;
#13 = ADVANCED_FACE ( 'NONE', ( #151 ), #118, .F. ) ;
#14 = PLANE ( 'NONE',  #41 ) ;
#15 = FACE_OUTER_BOUND ( 'NONE', #225, .T. ) ;
#16 = AXIS2_PLACEMENT_3D ( 'NONE', #216, #79, #42 ) ;
#17 = CARTESIAN_POINT ( 'NONE',  ( 2.223891741460905331E-15, 7.800362191632764782E-16, 0.6369479099658510446 ) ) ;
#18 = EDGE_CURVE ( 'NONE', #24, #24, #215, .T. ) ;
#19 = VERTEX_POINT ( 'NONE', #101 ) ;
#20 = DIRECTION ( 'NONE',  ( 7.043400939473419384E-30, -1.000000000000000000, 1.982541115402093312E-15 ) ) ;
#21 = AXIS2_PLACEMENT_3D ( 'NONE', #168, #11, #208 ) ;
#22 = DIRECTION ( 'NONE',  ( 3.491481338843133355E-15, 1.224646799147354045E-15, 1.000000000000000000 ) ) ;
#23 = CARTESIAN_POINT ( 'NONE',  ( 2.304377683636468267E-13, 2.299999999999992273, 66.00000000000000000 ) ) ;
#24 = VERTEX_POINT ( 'NONE', #174 ) ;
#25 = CIRCLE ( 'NONE', #46, 2.182499999999976126 ) ;
#26 = APPLICATION_PROTOCOL_DEFINITION ( 'international standard', 'config_control_design', 1994, #245 ) ;
#27 = COORDINATED_UNIVERSAL_TIME_OFFSET ( 1, 0, .AHEAD. ) ;
#28 = SHAPE_DEFINITION_REPRESENTATION ( #128, #78 ) ;
#29 = ADVANCED_FACE ( 'NONE', ( #233 ), #169, .F. ) ;
#30 = COORDINATED_UNIVERSAL_TIME_OFFSET ( 1, 0, .AHEAD. ) ;
#31 = ORIENTED_EDGE ( 'NONE', *, *, #53, .T. ) ;
#32 = APPROVAL_ROLE ( '' ) ;
#33 = DIRECTION ( 'NONE',  ( -3.491481338843133355E-15, -1.224646799147354045E-15, -1.000000000000000000 ) ) ;
#34 = ORIENTED_EDGE ( 'NONE', *, *, #96, .T. ) ;
#35 = DIRECTION ( 'NONE',  ( -4.275831445896958607E-31, -1.000000000000000000, -1.224646799147353207E-16 ) ) ;
#36 = ADVANCED_FACE ( 'NONE', ( #230, #232 ), #227, .T. ) ;
#37 = CARTESIAN_POINT ( 'NONE',  ( 1.047444401652940007E-13, 2.249639673992777927E-32, 30.00000000000000000 ) ) ;
#38 = CLOSED_SHELL ( 'NONE', ( #36, #221, #29, #247, #207, #13 ) ) ;
#39 = SECURITY_CLASSIFICATION ( '', '', #43 ) ;
#40 = DIRECTION ( 'NONE',  ( -3.491481338843133355E-15, 1.224646799147353207E-16, -1.000000000000000000 ) ) ;
#41 = AXIS2_PLACEMENT_3D ( 'NONE', #37, #52, #129 ) ;
#42 = DIRECTION ( 'NONE',  ( -4.235722214459946767E-30, 1.000000000000000000, -1.192249811667921775E-15 ) ) ;
#43 = SECURITY_CLASSIFICATION_LEVEL ( 'unclassified' ) ;
#44 = APPROVAL ( #178, 'UNSPECIFIED' ) ;
#45 = PERSON ( 'UNSPECIFIED', 'UNSPECIFIED', 'UNSPECIFIED', ('UNSPECIFIED'), ('UNSPECIFIED'), ('UNSPECIFIED') ) ;
#46 = AXIS2_PLACEMENT_3D ( 'NONE', #258, #40, #122 ) ;
#47 = PERSON_AND_ORGANIZATION_ROLE ( 'creator' ) ;
#48 = APPROVAL_ROLE ( '' ) ;
#49 = APPROVAL_ROLE ( '' ) ;
#50 = UNCERTAINTY_MEASURE_WITH_UNIT (LENGTH_MEASURE( 1.000000000000000082E-05 ), #76, 'distance_accuracy_value', 'NONE');
#51 = EDGE_LOOP ( 'NONE', ( #251 ) ) ;
#52 = DIRECTION ( 'NONE',  ( 3.491481338843133355E-15, -1.224646799147353207E-16, 1.000000000000000000 ) ) ;
#53 = EDGE_CURVE ( 'NONE', #234, #234, #209, .T. ) ;
#54 = CONICAL_SURFACE ( 'NONE', #70, 2.182499999999998774, 1.082104136236485381 ) ;
#55 = DIRECTION ( 'NONE',  ( -3.491481338843133355E-15, 1.224646799147353207E-16, -1.000000000000000000 ) ) ;
#56 = DIRECTION ( 'NONE',  ( -3.491481338843133355E-15, -1.224646799147354045E-15, -1.000000000000000000 ) ) ;
#57 = DIRECTION ( 'NONE',  ( 4.275831445896958607E-31, 1.000000000000000000, 1.224646799147353454E-16 ) ) ;
#58 = CARTESIAN_POINT ( 'NONE',  ( 3.026807905439890490E-15, 2.182499999999999662, 0.8669122391594372701 ) ) ;
#59 = APPROVAL_PERSON_ORGANIZATION ( #158, #44, #32 ) ;
#60 = LOCAL_TIME ( 11, 34, 6.000000000000000000, #127 ) ;
#61 = FACE_OUTER_BOUND ( 'NONE', #249, .T. ) ;
#62 = CONICAL_SURFACE ( 'NONE', #81, 2.300000000000000266, 0.7853981633974437271 ) ;
#63 = CALENDAR_DATE ( 2021, 15, 10 ) ;
#64 = EDGE_LOOP ( 'NONE', ( #31 ) ) ;
#65 = AXIS2_PLACEMENT_3D ( 'NONE', #255, #191, #35 ) ;
#66 = APPROVAL_STATUS ( 'not_yet_approved' ) ;
#67 = APPROVAL ( #66, 'UNSPECIFIED' ) ;
#68 = EDGE_LOOP ( 'NONE', ( #144 ) ) ;
#69 = PERSON_AND_ORGANIZATION ( #45, #148 ) ;
#70 = AXIS2_PLACEMENT_3D ( 'NONE', #253, #186, #211 ) ;
#71 = EDGE_LOOP ( 'NONE', ( #200 ) ) ;
#72 = EDGE_LOOP ( 'NONE', ( #242 ) ) ;
#73 = DIRECTION ( 'NONE',  ( 0.0000000000000000000, 1.000000000000000000, 0.0000000000000000000 ) ) ;
#74 = DIRECTION ( 'NONE',  ( 0.0000000000000000000, 1.000000000000000000, 0.0000000000000000000 ) ) ;
#75 = FACE_OUTER_BOUND ( 'NONE', #8, .T. ) ;
#76 =( LENGTH_UNIT ( ) NAMED_UNIT ( * ) SI_UNIT ( .MILLI., .METRE. ) );
#77 = CC_DESIGN_APPROVAL ( #44, ( #92 ) ) ;
#78 = ADVANCED_BREP_SHAPE_REPRESENTATION ( '62858', ( #3, #170, #190 ), #224 ) ;
#79 = DIRECTION ( 'NONE',  ( -3.491481338843133355E-15, -1.224646799147354045E-15, -1.000000000000000000 ) ) ;
#80 = DIRECTION ( 'NONE',  ( 4.182019307812286269E-30, -1.000000000000000000, 1.239088197126291655E-15 ) ) ;
#81 = AXIS2_PLACEMENT_3D ( 'NONE', #238, #193, #120 ) ;
#82 = CYLINDRICAL_SURFACE ( 'NONE', #16, 2.182499999999976126 ) ;
#83 = PERSON_AND_ORGANIZATION ( #45, #148 ) ;
#84 = CALENDAR_DATE ( 2021, 15, 10 ) ;
#85 = ORIENTED_EDGE ( 'NONE', *, *, #257, .T. ) ;
#86 = CIRCLE ( 'NONE', #248, 2.182499999999953921 ) ;
#87 = COORDINATED_UNIVERSAL_TIME_OFFSET ( 1, 0, .AHEAD. ) ;
#88 = PERSON_AND_ORGANIZATION ( #45, #148 ) ;
#89 = ORIENTED_EDGE ( 'NONE', *, *, #198, .F. ) ;
#90 = PERSON_AND_ORGANIZATION_ROLE ( 'classification_officer' ) ;
#91 = EDGE_LOOP ( 'NONE', ( #106 ) ) ;
#92 = PRODUCT_DEFINITION ( 'UNKNOWN', '', #199, #111 ) ;
#93 = CC_DESIGN_APPROVAL ( #67, ( #39 ) ) ;
#94 = FACE_BOUND ( 'NONE', #71, .T. ) ;
#95 = DIRECTION ( 'NONE',  ( 8.217301096052212846E-30, -1.000000000000000000, 2.312964634635744633E-15 ) ) ;
#96 = EDGE_CURVE ( 'NONE', #263, #263, #86, .T. ) ;
#97 = CYLINDRICAL_SURFACE ( 'NONE', #237, 2.182499999999976126 ) ;
#98 = AXIS2_PLACEMENT_3D ( 'NONE', #142, #22, #80 ) ;
#99 = DIRECTION ( 'NONE',  ( 4.275831445896958607E-31, 1.000000000000000000, 1.224646799147353207E-16 ) ) ;
#100 = EDGE_LOOP ( 'NONE', ( #34 ) ) ;
#101 = CARTESIAN_POINT ( 'NONE',  ( 1.047444401652940007E-13, -2.182499999999939266, 30.00000000000000000 ) ) ;
#102 = CARTESIAN_POINT ( 'NONE',  ( 2.223891741460898231E-15, 1.750000000000000000, 0.6369479099658489352 ) ) ;
#103 = AXIS2_PLACEMENT_3D ( 'NONE', #17, #56, #212 ) ;
#104 = CC_DESIGN_DATE_AND_TIME_ASSIGNMENT ( #143, #241, ( #39 ) ) ;
#105 = PERSON_AND_ORGANIZATION ( #45, #148 ) ;
#106 = ORIENTED_EDGE ( 'NONE', *, *, #198, .T. ) ;
#107 = CARTESIAN_POINT ( 'NONE',  ( 0.0000000000000000000, 0.0000000000000000000, 0.0000000000000000000 ) ) ;
#108 = EDGE_LOOP ( 'NONE', ( #85 ) ) ;
#109 = ORIENTED_EDGE ( 'NONE', *, *, #138, .F. ) ;
#110 = ADVANCED_FACE ( 'NONE', ( #187 ), #14, .T. ) ;
#111 = DESIGN_CONTEXT ( 'detailed design', #245, 'design' ) ;
#112 = CARTESIAN_POINT ( 'NONE',  ( 0.0000000000000000000, 0.0000000000000000000, 0.0000000000000000000 ) ) ;
#113 = APPROVAL_PERSON_ORGANIZATION ( #88, #226, #48 ) ;
#114 = FACE_OUTER_BOUND ( 'NONE', #2, .T. ) ;
#115 = ADVANCED_FACE ( 'NONE', ( #154, #75 ), #97, .T. ) ;
#116 = DIRECTION ( 'NONE',  ( 0.0000000000000000000, 1.000000000000000000, 0.0000000000000000000 ) ) ;
#117 = DIRECTION ( 'NONE',  ( -3.491481338843133355E-15, 1.224646799147353207E-16, -1.000000000000000000 ) ) ;
#118 = PLANE ( 'NONE',  #65 ) ;
#119 = CARTESIAN_POINT ( 'NONE',  ( 1.047444401652940007E-13, -2.182499999999939266, 30.00000000000000000 ) ) ;
#120 = DIRECTION ( 'NONE',  ( 0.0000000000000000000, 1.000000000000000000, 0.0000000000000000000 ) ) ;
#121 = FACE_OUTER_BOUND ( 'NONE', #64, .T. ) ;
#122 = DIRECTION ( 'NONE',  ( 0.0000000000000000000, -1.000000000000000000, 0.0000000000000000000 ) ) ;
#123 = PRODUCT_RELATED_PRODUCT_CATEGORY ( 'detail', '', ( #159 ) ) ;
#124 = DATE_AND_TIME ( #63, #171 ) ;
#125 = DIRECTION ( 'NONE',  ( 1.000000000000000000, 0.0000000000000000000, 0.0000000000000000000 ) ) ;
#126 = CC_DESIGN_PERSON_AND_ORGANIZATION_ASSIGNMENT ( #203, #9, ( #92 ) ) ;
#127 = COORDINATED_UNIVERSAL_TIME_OFFSET ( 1, 0, .AHEAD. ) ;
#128 = PRODUCT_DEFINITION_SHAPE ( 'NONE', 'NONE',  #92 ) ;
#129 = DIRECTION ( 'NONE',  ( -4.275831445896958607E-31, -1.000000000000000000, -1.224646799147353207E-16 ) ) ;
#130 = DIRECTION ( 'NONE',  ( -3.491481338843133355E-15, 1.224646799147353207E-16, -1.000000000000000000 ) ) ;
#131 = AXIS2_PLACEMENT_3D ( 'NONE', #183, #130, #74 ) ;
#132 = CC_DESIGN_SECURITY_CLASSIFICATION ( #39, ( #199 ) ) ;
#133 = CARTESIAN_POINT ( 'NONE',  ( 2.304377683636468267E-13, 1.724723750061123933E-32, 66.00000000000000000 ) ) ;
#134 = CC_DESIGN_PERSON_AND_ORGANIZATION_ASSIGNMENT ( #69, #47, ( #199 ) ) ;
#135 = DIRECTION ( 'NONE',  ( -4.235722214459946767E-30, 1.000000000000000000, -1.192249811667921775E-15 ) ) ;
#136 = CARTESIAN_POINT ( 'NONE',  ( 2.279937314264566018E-13, -7.996943598432214956E-15, 65.29999999999999716 ) ) ;
#137 = CIRCLE ( 'NONE', #262, 2.999999999999997780 ) ;
#138 = EDGE_CURVE ( 'NONE', #196, #196, #184, .T. ) ;
#139 = VERTEX_POINT ( 'NONE', #140 ) ;
#140 = CARTESIAN_POINT ( 'NONE',  ( 1.236541338824804840E-13, -2.999999999999954703, 35.41595153518764505 ) ) ;
#141 = DIRECTION ( 'NONE',  ( 3.491481338843133355E-15, 1.224646799147354045E-15, 1.000000000000000000 ) ) ;
#142 = CARTESIAN_POINT ( 'NONE',  ( 2.223891741460905331E-15, 7.800362191632764782E-16, 0.6369479099658510446 ) ) ;
#143 = DATE_AND_TIME ( #160, #250 ) ;
#144 = ORIENTED_EDGE ( 'NONE', *, *, #188, .T. ) ;
#145 = LOCAL_TIME ( 11, 34, 6.000000000000000000, #87 ) ;
#146 = CC_DESIGN_PERSON_AND_ORGANIZATION_ASSIGNMENT ( #105, #201, ( #199 ) ) ;
#147 = APPROVAL_DATE_TIME ( #124, #226 ) ;
#148 = ORGANIZATION ( 'UNSPECIFIED', 'UNSPECIFIED', '' ) ;
#149 = EDGE_LOOP ( 'NONE', ( #204 ) ) ;
#150 = CARTESIAN_POINT ( 'NONE',  ( 1.187103655206665341E-13, 4.163799117101004504E-14, 34.00000000000000000 ) ) ;
#151 = FACE_OUTER_BOUND ( 'NONE', #108, .T. ) ;
#152 = DIRECTION ( 'NONE',  ( -3.491481338843133355E-15, 1.224646799147353207E-16, -1.000000000000000000 ) ) ;
#153 = CC_DESIGN_DATE_AND_TIME_ASSIGNMENT ( #4, #223, ( #92 ) ) ;
#154 = FACE_OUTER_BOUND ( 'NONE', #91, .T. ) ;
#155 = CLOSED_SHELL ( 'NONE', ( #110, #236, #185, #115 ) ) ;
#156 = AXIS2_PLACEMENT_3D ( 'NONE', #165, #252, #228 ) ;
#157 = VERTEX_POINT ( 'NONE', #58 ) ;
#158 = PERSON_AND_ORGANIZATION ( #45, #148 ) ;
#159 = PRODUCT ( '62858', '62858', '', ( #220 ) ) ;
#160 = CALENDAR_DATE ( 2021, 15, 10 ) ;
#161 = DIRECTION ( 'NONE',  ( 0.0000000000000000000, 0.0000000000000000000, 1.000000000000000000 ) ) ;
#162 = PERSON_AND_ORGANIZATION ( #45, #148 ) ;
#163 = EDGE_LOOP ( 'NONE', ( #89 ) ) ;
#164 = CC_DESIGN_PERSON_AND_ORGANIZATION_ASSIGNMENT ( #222, #90, ( #39 ) ) ;
#165 = CARTESIAN_POINT ( 'NONE',  ( 1.047444401652940007E-13, 3.673940397442062649E-14, 30.00000000000000000 ) ) ;
#166 = DIRECTION ( 'NONE',  ( 3.491481338843133355E-15, 1.224646799147354045E-15, 1.000000000000000000 ) ) ;
#167 = AXIS2_PLACEMENT_3D ( 'NONE', #112, #117, #57 ) ;
#168 = CARTESIAN_POINT ( 'NONE',  ( 3.026807905439899956E-15, 1.061661298828273483E-15, 0.8669122391594399346 ) ) ;
#169 = PLANE ( 'NONE',  #254 ) ;
#170 = MANIFOLD_SOLID_BREP ( 'Corps-Déplacer/Copier1[2]', #155 ) ;
#171 = LOCAL_TIME ( 11, 34, 6.000000000000000000, #7 ) ;
#172 = CARTESIAN_POINT ( 'NONE',  ( 1.187103655206665341E-13, 2.182499999999995666, 34.00000000000000000 ) ) ;
#173 = CC_DESIGN_PERSON_AND_ORGANIZATION_ASSIGNMENT ( #83, #175, ( #159 ) ) ;
#174 = CARTESIAN_POINT ( 'NONE',  ( 2.279937314264566018E-13, 2.999999999999992450, 65.29999999999999716 ) ) ;
#175 = PERSON_AND_ORGANIZATION_ROLE ( 'design_owner' ) ;
#176 = EDGE_LOOP ( 'NONE', ( #109 ) ) ;
#177 = EDGE_CURVE ( 'NONE', #157, #157, #10, .T. ) ;
#178 = APPROVAL_STATUS ( 'not_yet_approved' ) ;
#179 = AXIS2_PLACEMENT_3D ( 'NONE', #136, #152, #73 ) ;
#180 = ORIENTED_EDGE ( 'NONE', *, *, #177, .F. ) ;
#181 = DATE_AND_TIME ( #84, #145 ) ;
#182 = EDGE_LOOP ( 'NONE', ( #5 ) ) ;
#183 = CARTESIAN_POINT ( 'NONE',  ( 2.304377683636468267E-13, -8.082668874372532400E-15, 66.00000000000000000 ) ) ;
#184 = CIRCLE ( 'NONE', #131, 2.300000000000000266 ) ;
#185 = ADVANCED_FACE ( 'NONE', ( #94, #114 ), #54, .T. ) ;
#186 = DIRECTION ( 'NONE',  ( 3.491481338843133355E-15, 1.224646799147354045E-15, 1.000000000000000000 ) ) ;
#187 = FACE_OUTER_BOUND ( 'NONE', #163, .T. ) ;
#188 = EDGE_CURVE ( 'NONE', #139, #139, #137, .T. ) ;
#189 = FACE_BOUND ( 'NONE', #182, .T. ) ;
#190 = AXIS2_PLACEMENT_3D ( 'NONE', #107, #161, #125 ) ;
#191 = DIRECTION ( 'NONE',  ( 3.491481338843133355E-15, -1.224646799147353207E-16, 1.000000000000000000 ) ) ;
#192 = FACE_BOUND ( 'NONE', #149, .T. ) ;
#193 = DIRECTION ( 'NONE',  ( -3.491481338843133355E-15, 1.224646799147353207E-16, -1.000000000000000000 ) ) ;
#194 = CONICAL_SURFACE ( 'NONE', #98, 1.749999999999998890, 1.221730476396032161 ) ;
#195 = APPROVAL_PERSON_ORGANIZATION ( #162, #67, #49 ) ;
#196 = VERTEX_POINT ( 'NONE', #23 ) ;
#197 = FACE_OUTER_BOUND ( 'NONE', #100, .T. ) ;
#198 = EDGE_CURVE ( 'NONE', #214, #214, #229, .T. ) ;
#199 = PRODUCT_DEFINITION_FORMATION_WITH_SPECIFIED_SOURCE ( 'ANY', '', #159, .NOT_KNOWN. ) ;
#200 = ORIENTED_EDGE ( 'NONE', *, *, #53, .F. ) ;
#201 = PERSON_AND_ORGANIZATION_ROLE ( 'design_supplier' ) ;
#202 = APPROVAL_DATE_TIME ( #239, #67 ) ;
#203 = PERSON_AND_ORGANIZATION ( #45, #148 ) ;
#204 = ORIENTED_EDGE ( 'NONE', *, *, #138, .T. ) ;
#205 =( NAMED_UNIT ( * ) SI_UNIT ( $, .STERADIAN. ) SOLID_ANGLE_UNIT ( ) );
#206 = CARTESIAN_POINT ( 'NONE',  ( -3.491481338843130200E-15, -1.224646799147353059E-15, -0.9999999999999991118 ) ) ;
#207 = ADVANCED_FACE ( 'NONE', ( #189, #15 ), #213, .T. ) ;
#208 = DIRECTION ( 'NONE',  ( -4.235722214459902626E-30, 1.000000000000000000, -1.241926887154072281E-15 ) ) ;
#209 = CIRCLE ( 'NONE', #103, 1.749999999999999112 ) ;
#210 = ORIENTED_EDGE ( 'NONE', *, *, #257, .F. ) ;
#211 = DIRECTION ( 'NONE',  ( 4.235722214459902626E-30, -1.000000000000000000, 1.241926887154072281E-15 ) ) ;
#212 = DIRECTION ( 'NONE',  ( -4.182019307812285568E-30, 1.000000000000000000, -1.239088197126291458E-15 ) ) ;
#213 = CONICAL_SURFACE ( 'NONE', #6, 3.499999999999950262, 0.5235987755982977054 ) ;
#214 = VERTEX_POINT ( 'NONE', #119 ) ;
#215 = CIRCLE ( 'NONE', #179, 3.000000000000000000 ) ;
#216 = CARTESIAN_POINT ( 'NONE',  ( -3.491481338843130200E-15, -1.224646799147353059E-15, -0.9999999999999991118 ) ) ;
#217 = APPROVAL_STATUS ( 'not_yet_approved' ) ;
#218 = LOCAL_TIME ( 11, 34, 6.000000000000000000, #30 ) ;
#219 = ORIENTED_EDGE ( 'NONE', *, *, #188, .F. ) ;
#220 = MECHANICAL_CONTEXT ( 'NONE', #231, 'mechanical' ) ;
#221 = ADVANCED_FACE ( 'NONE', ( #261, #192 ), #62, .T. ) ;
#222 = PERSON_AND_ORGANIZATION ( #45, #148 ) ;
#223 = DATE_TIME_ROLE ( 'creation_date' ) ;
#224 =( GEOMETRIC_REPRESENTATION_CONTEXT ( 3 ) GLOBAL_UNCERTAINTY_ASSIGNED_CONTEXT ( ( #50 ) ) GLOBAL_UNIT_ASSIGNED_CONTEXT ( ( #76, #260, #205 ) ) REPRESENTATION_CONTEXT ( 'NONE', 'WORKASPACE' ) );
#225 = EDGE_LOOP ( 'NONE', ( #219 ) ) ;
#226 = APPROVAL ( #217, 'UNSPECIFIED' ) ;
#227 = CYLINDRICAL_SURFACE ( 'NONE', #167, 2.999999999999997780 ) ;
#228 = DIRECTION ( 'NONE',  ( 0.0000000000000000000, -1.000000000000000000, 0.0000000000000000000 ) ) ;
#229 = CIRCLE ( 'NONE', #156, 2.182499999999976126 ) ;
#230 = FACE_OUTER_BOUND ( 'NONE', #68, .T. ) ;
#231 = APPLICATION_CONTEXT ( 'configuration controlled 3d designs of mechanical parts and assemblies' ) ;
#232 = FACE_OUTER_BOUND ( 'NONE', #51, .T. ) ;
#233 = FACE_OUTER_BOUND ( 'NONE', #176, .T. ) ;
#234 = VERTEX_POINT ( 'NONE', #102 ) ;
#235 = CARTESIAN_POINT ( 'NONE',  ( 1.266778454187576349E-13, 4.443260692505017133E-14, 36.28197693897200082 ) ) ;
#236 = ADVANCED_FACE ( 'NONE', ( #121 ), #194, .T. ) ;
#237 = AXIS2_PLACEMENT_3D ( 'NONE', #206, #33, #135 ) ;
#238 = CARTESIAN_POINT ( 'NONE',  ( 2.304377683636468267E-13, -8.082668874372532400E-15, 66.00000000000000000 ) ) ;
#239 = DATE_AND_TIME ( #243, #60 ) ;
#240 = CALENDAR_DATE ( 2021, 15, 10 ) ;
#241 = DATE_TIME_ROLE ( 'classification_date' ) ;
#242 = ORIENTED_EDGE ( 'NONE', *, *, #18, .F. ) ;
#243 = CALENDAR_DATE ( 2021, 15, 10 ) ;
#244 = ORIENTED_EDGE ( 'NONE', *, *, #177, .T. ) ;
#245 = APPLICATION_CONTEXT ( 'configuration controlled 3d designs of mechanical parts and assemblies' ) ;
#246 = APPROVAL_DATE_TIME ( #181, #44 ) ;
#247 = ADVANCED_FACE ( 'NONE', ( #197, #61 ), #82, .T. ) ;
#248 = AXIS2_PLACEMENT_3D ( 'NONE', #150, #256, #116 ) ;
#249 = EDGE_LOOP ( 'NONE', ( #210 ) ) ;
#250 = LOCAL_TIME ( 11, 34, 6.000000000000000000, #27 ) ;
#251 = ORIENTED_EDGE ( 'NONE', *, *, #18, .T. ) ;
#252 = DIRECTION ( 'NONE',  ( -3.491481338843133355E-15, 1.224646799147353207E-16, -1.000000000000000000 ) ) ;
#253 = CARTESIAN_POINT ( 'NONE',  ( 3.026807905439899956E-15, 1.061661298828273483E-15, 0.8669122391594399346 ) ) ;
#254 = AXIS2_PLACEMENT_3D ( 'NONE', #133, #55, #99 ) ;
#255 = CARTESIAN_POINT ( 'NONE',  ( 1.047444401652940007E-13, 2.249639673992777927E-32, 30.00000000000000000 ) ) ;
#256 = DIRECTION ( 'NONE',  ( -3.491481338843133355E-15, -1.224646799147354045E-15, -1.000000000000000000 ) ) ;
#257 = EDGE_CURVE ( 'NONE', #19, #19, #25, .T. ) ;
#258 = CARTESIAN_POINT ( 'NONE',  ( 1.047444401652940007E-13, 3.673940397442062649E-14, 30.00000000000000000 ) ) ;
#259 = CC_DESIGN_APPROVAL ( #226, ( #199 ) ) ;
#260 =( NAMED_UNIT ( * ) PLANE_ANGLE_UNIT ( ) SI_UNIT ( $, .RADIAN. ) );
#261 = FACE_OUTER_BOUND ( 'NONE', #72, .T. ) ;
#262 = AXIS2_PLACEMENT_3D ( 'NONE', #12, #166, #95 ) ;
#263 = VERTEX_POINT ( 'NONE', #172 ) ;
ENDSEC;
END-ISO-10303-21;
