ISO-10303-21;
HEADER;
FILE_DESCRIPTION (( 'STEP AP203' ),
    '1' );
FILE_NAME ('62857.step',
    '2021-10-15T09:34:06',
    ( '' ),
    ( '' ),
    'SwSTEP 2.0',
    'SolidWorks 2019',
    '' );
FILE_SCHEMA (( 'CONFIG_CONTROL_DESIGN' ));
ENDSEC;

DATA;
#1 = APPROVAL_STATUS ( 'not_yet_approved' ) ;
#2 = APPROVAL_DATE_TIME ( #60, #46 ) ;
#3 = APPROVAL_STATUS ( 'not_yet_approved' ) ;
#4 = ORIENTED_EDGE ( 'NONE', *, *, #254, .F. ) ;
#5 = CIRCLE ( 'NONE', #133, 2.149999999999954170 ) ;
#6 = EDGE_LOOP ( 'NONE', ( #4 ) ) ;
#7 = ORIENTED_EDGE ( 'NONE', *, *, #148, .F. ) ;
#8 = CC_DESIGN_PERSON_AND_ORGANIZATION_ASSIGNMENT ( #135, #120, ( #151 ) ) ;
#9 = AXIS2_PLACEMENT_3D ( 'NONE', #36, #197, #51 ) ;
#10 = CIRCLE ( 'NONE', #171, 2.149999999999998579 ) ;
#11 = DIRECTION ( 'NONE',  ( -4.275831445896958607E-31, -1.000000000000000000, -1.224646799147353207E-16 ) ) ;
#12 = DIRECTION ( 'NONE',  ( 3.491481338843133355E-15, 1.224646799147354045E-15, 1.000000000000000000 ) ) ;
#13 = DIRECTION ( 'NONE',  ( -4.275831445896958607E-31, -1.000000000000000000, -1.224646799147353207E-16 ) ) ;
#14 = DIRECTION ( 'NONE',  ( -3.491481338843133355E-15, 1.224646799147353207E-16, -1.000000000000000000 ) ) ;
#15 = CYLINDRICAL_SURFACE ( 'NONE', #206, 2.149999999999976374 ) ;
#16 = AXIS2_PLACEMENT_3D ( 'NONE', #126, #188, #81 ) ;
#17 = ORIENTED_EDGE ( 'NONE', *, *, #52, .F. ) ;
#18 = VERTEX_POINT ( 'NONE', #49 ) ;
#19 = DIRECTION ( 'NONE',  ( 4.275831445896958607E-31, 1.000000000000000000, 1.224646799147353207E-16 ) ) ;
#20 = COORDINATED_UNIVERSAL_TIME_OFFSET ( 1, 0, .AHEAD. ) ;
#21 = CALENDAR_DATE ( 2021, 15, 10 ) ;
#22 = PERSON_AND_ORGANIZATION ( #76, #100 ) ;
#23 = APPROVAL_ROLE ( '' ) ;
#24 = CIRCLE ( 'NONE', #208, 2.999999999999997780 ) ;
#25 = EDGE_LOOP ( 'NONE', ( #63 ) ) ;
#26 = ADVANCED_FACE ( 'NONE', ( #176, #33 ), #78, .T. ) ;
#27 = FACE_BOUND ( 'NONE', #6, .T. ) ;
#28 = AXIS2_PLACEMENT_3D ( 'NONE', #191, #82, #86 ) ;
#29 = DIRECTION ( 'NONE',  ( 4.242628283287825868E-30, -1.000000000000000000, 1.194193697230411233E-15 ) ) ;
#30 = VERTEX_POINT ( 'NONE', #190 ) ;
#31 = CARTESIAN_POINT ( 'NONE',  ( 1.047444401652940007E-13, 3.673940397442062649E-14, 30.00000000000000000 ) ) ;
#32 = DIRECTION ( 'NONE',  ( 4.275831445896958607E-31, 1.000000000000000000, 1.224646799147353454E-16 ) ) ;
#33 = FACE_BOUND ( 'NONE', #230, .T. ) ;
#34 = AXIS2_PLACEMENT_3D ( 'NONE', #146, #45, #29 ) ;
#35 = FACE_OUTER_BOUND ( 'NONE', #142, .T. ) ;
#36 = CARTESIAN_POINT ( 'NONE',  ( 2.279937314264566018E-13, -7.996943598432214956E-15, 65.29999999999999716 ) ) ;
#37 = ADVANCED_FACE ( 'NONE', ( #69, #189 ), #101, .T. ) ;
#38 = APPROVAL_STATUS ( 'not_yet_approved' ) ;
#39 = CLOSED_SHELL ( 'NONE', ( #137, #107, #139, #184 ) ) ;
#40 = APPROVAL_PERSON_ORGANIZATION ( #136, #164, #114 ) ;
#41 = DATE_AND_TIME ( #244, #166 ) ;
#42 = LOCAL_TIME ( 11, 34, 6.000000000000000000, #200 ) ;
#43 = EDGE_LOOP ( 'NONE', ( #97 ) ) ;
#44 = CC_DESIGN_PERSON_AND_ORGANIZATION_ASSIGNMENT ( #95, #180, ( #54 ) ) ;
#45 = DIRECTION ( 'NONE',  ( 3.491481338843133355E-15, 1.224646799147354045E-15, 1.000000000000000000 ) ) ;
#46 = APPROVAL ( #3, 'UNSPECIFIED' ) ;
#47 = DIRECTION ( 'NONE',  ( 4.299750573515691905E-30, -1.000000000000000000, 1.210272192541959158E-15 ) ) ;
#48 = FACE_OUTER_BOUND ( 'NONE', #43, .T. ) ;
#49 = CARTESIAN_POINT ( 'NONE',  ( 2.279937314264566018E-13, 2.999999999999992450, 65.29999999999999716 ) ) ;
#50 = CARTESIAN_POINT ( 'NONE',  ( 2.304377683636468267E-13, -8.082668874372532400E-15, 66.00000000000000000 ) ) ;
#51 = DIRECTION ( 'NONE',  ( 0.0000000000000000000, 1.000000000000000000, 0.0000000000000000000 ) ) ;
#52 = EDGE_CURVE ( 'NONE', #110, #110, #62, .T. ) ;
#53 = PLANE ( 'NONE',  #165 ) ;
#54 = PRODUCT ( '62857', '62857', '', ( #243 ) ) ;
#55 = DATE_TIME_ROLE ( 'creation_date' ) ;
#56 = SECURITY_CLASSIFICATION_LEVEL ( 'unclassified' ) ;
#57 = APPROVAL_ROLE ( '' ) ;
#58 = CC_DESIGN_APPROVAL ( #164, ( #151 ) ) ;
#59 = CARTESIAN_POINT ( 'NONE',  ( 0.0000000000000000000, 0.0000000000000000000, 0.0000000000000000000 ) ) ;
#60 = DATE_AND_TIME ( #21, #65 ) ;
#61 = ORIENTED_EDGE ( 'NONE', *, *, #205, .T. ) ;
#62 = CIRCLE ( 'NONE', #109, 2.149999999999976374 ) ;
#63 = ORIENTED_EDGE ( 'NONE', *, *, #144, .F. ) ;
#64 = ORIENTED_EDGE ( 'NONE', *, *, #98, .F. ) ;
#65 = LOCAL_TIME ( 11, 34, 6.000000000000000000, #96 ) ;
#66 = ORIENTED_EDGE ( 'NONE', *, *, #144, .T. ) ;
#67 = DIRECTION ( 'NONE',  ( -3.491481338843133355E-15, -1.224646799147354045E-15, -1.000000000000000000 ) ) ;
#68 = DIRECTION ( 'NONE',  ( -3.491481338843133355E-15, 1.224646799147353207E-16, -1.000000000000000000 ) ) ;
#69 = FACE_OUTER_BOUND ( 'NONE', #246, .T. ) ;
#70 = DIRECTION ( 'NONE',  ( 7.043400939473420785E-30, -1.000000000000000000, 1.982541115402093706E-15 ) ) ;
#71 = CARTESIAN_POINT ( 'NONE',  ( -3.491481338843130200E-15, -1.224646799147353059E-15, -0.9999999999999991118 ) ) ;
#72 = ORIENTED_EDGE ( 'NONE', *, *, #52, .T. ) ;
#73 = PRODUCT_RELATED_PRODUCT_CATEGORY ( 'detail', '', ( #54 ) ) ;
#74 = APPLICATION_PROTOCOL_DEFINITION ( 'international standard', 'config_control_design', 1994, #163 ) ;
#75 = CC_DESIGN_APPROVAL ( #242, ( #122 ) ) ;
#76 = PERSON ( 'UNSPECIFIED', 'UNSPECIFIED', 'UNSPECIFIED', ('UNSPECIFIED'), ('UNSPECIFIED'), ('UNSPECIFIED') ) ;
#77 = ORIENTED_EDGE ( 'NONE', *, *, #129, .F. ) ;
#78 = CONICAL_SURFACE ( 'NONE', #28, 2.300000000000000266, 0.7853981633974437271 ) ;
#79 = CC_DESIGN_PERSON_AND_ORGANIZATION_ASSIGNMENT ( #204, #159, ( #122 ) ) ;
#80 = CONICAL_SURFACE ( 'NONE', #241, 2.149999999999998579, 1.082104136236486047 ) ;
#81 = DIRECTION ( 'NONE',  ( 0.0000000000000000000, -1.000000000000000000, 0.0000000000000000000 ) ) ;
#82 = DIRECTION ( 'NONE',  ( -3.491481338843133355E-15, 1.224646799147353207E-16, -1.000000000000000000 ) ) ;
#83 = CARTESIAN_POINT ( 'NONE',  ( 1.047444401652940007E-13, -2.149999999999939515, 30.00000000000000000 ) ) ;
#84 = CARTESIAN_POINT ( 'NONE',  ( 1.187103655206665341E-13, 4.163799117101004504E-14, 34.00000000000000000 ) ) ;
#85 = AXIS2_PLACEMENT_3D ( 'NONE', #218, #192, #70 ) ;
#86 = DIRECTION ( 'NONE',  ( 0.0000000000000000000, 1.000000000000000000, 0.0000000000000000000 ) ) ;
#87 = ADVANCED_FACE ( 'NONE', ( #193, #240 ), #233, .T. ) ;
#88 = FACE_OUTER_BOUND ( 'NONE', #250, .T. ) ;
#89 = DIRECTION ( 'NONE',  ( 0.0000000000000000000, -1.000000000000000000, 0.0000000000000000000 ) ) ;
#90 = CARTESIAN_POINT ( 'NONE',  ( 2.192121859440027355E-15, 1.725000000000000089, 0.6278486541091938822 ) ) ;
#91 = PERSON_AND_ORGANIZATION ( #76, #100 ) ;
#92 = VERTEX_POINT ( 'NONE', #239 ) ;
#93 = CC_DESIGN_DATE_AND_TIME_ASSIGNMENT ( #183, #55, ( #122 ) ) ;
#94 = PERSON_AND_ORGANIZATION ( #76, #100 ) ;
#95 = PERSON_AND_ORGANIZATION ( #76, #100 ) ;
#96 = COORDINATED_UNIVERSAL_TIME_OFFSET ( 1, 0, .AHEAD. ) ;
#97 = ORIENTED_EDGE ( 'NONE', *, *, #148, .T. ) ;
#98 = EDGE_CURVE ( 'NONE', #131, #131, #5, .T. ) ;
#99 = ORIENTED_EDGE ( 'NONE', *, *, #98, .T. ) ;
#100 = ORGANIZATION ( 'UNSPECIFIED', 'UNSPECIFIED', '' ) ;
#101 = CYLINDRICAL_SURFACE ( 'NONE', #179, 2.999999999999997780 ) ;
#102 = CC_DESIGN_DATE_AND_TIME_ASSIGNMENT ( #220, #160, ( #151 ) ) ;
#103 = CARTESIAN_POINT ( 'NONE',  ( -3.491481338843130200E-15, -1.224646799147353059E-15, -0.9999999999999991118 ) ) ;
#104 = FACE_BOUND ( 'NONE', #231, .T. ) ;
#105 = DIRECTION ( 'NONE',  ( -4.299750573515691905E-30, 1.000000000000000000, -1.210272192541959158E-15 ) ) ;
#106 =( LENGTH_UNIT ( ) NAMED_UNIT ( * ) SI_UNIT ( .MILLI., .METRE. ) );
#107 = ADVANCED_FACE ( 'NONE', ( #152 ), #149, .T. ) ;
#108 = FACE_OUTER_BOUND ( 'NONE', #253, .T. ) ;
#109 = AXIS2_PLACEMENT_3D ( 'NONE', #31, #14, #89 ) ;
#110 = VERTEX_POINT ( 'NONE', #83 ) ;
#111 = PLANE ( 'NONE',  #263 ) ;
#112 = DIRECTION ( 'NONE',  ( -4.242628283287825167E-30, 1.000000000000000000, -1.194193697230411035E-15 ) ) ;
#113 = UNCERTAINTY_MEASURE_WITH_UNIT (LENGTH_MEASURE( 1.000000000000000082E-05 ), #106, 'distance_accuracy_value', 'NONE');
#114 = APPROVAL_ROLE ( '' ) ;
#115 = APPROVAL_DATE_TIME ( #41, #242 ) ;
#116 = SHAPE_DEFINITION_REPRESENTATION ( #219, #187 ) ;
#117 = COORDINATED_UNIVERSAL_TIME_OFFSET ( 1, 0, .AHEAD. ) ;
#118 = CIRCLE ( 'NONE', #9, 3.000000000000000000 ) ;
#119 = CIRCLE ( 'NONE', #185, 2.300000000000000266 ) ;
#120 = PERSON_AND_ORGANIZATION_ROLE ( 'classification_officer' ) ;
#121 = LOCAL_TIME ( 11, 34, 6.000000000000000000, #178 ) ;
#122 = PRODUCT_DEFINITION ( 'UNKNOWN', '', #182, #140 ) ;
#123 = EDGE_LOOP ( 'NONE', ( #186 ) ) ;
#124 = AXIS2_PLACEMENT_3D ( 'NONE', #150, #175, #13 ) ;
#125 = EDGE_LOOP ( 'NONE', ( #141 ) ) ;
#126 = CARTESIAN_POINT ( 'NONE',  ( 1.047444401652940007E-13, 3.673940397442062649E-14, 30.00000000000000000 ) ) ;
#127 = CIRCLE ( 'NONE', #16, 2.149999999999976374 ) ;
#128 = DIRECTION ( 'NONE',  ( 0.0000000000000000000, 1.000000000000000000, 0.0000000000000000000 ) ) ;
#129 = EDGE_CURVE ( 'NONE', #30, #30, #24, .T. ) ;
#130 = CARTESIAN_POINT ( 'NONE',  ( 1.047444401652940007E-13, 2.249639673992777927E-32, 30.00000000000000000 ) ) ;
#131 = VERTEX_POINT ( 'NONE', #153 ) ;
#132 = DIRECTION ( 'NONE',  ( -4.299750573515736746E-30, 1.000000000000000000, -1.210272192541971780E-15 ) ) ;
#133 = AXIS2_PLACEMENT_3D ( 'NONE', #84, #67, #194 ) ;
#134 = DIRECTION ( 'NONE',  ( -3.491481338843133355E-15, 1.224646799147353207E-16, -1.000000000000000000 ) ) ;
#135 = PERSON_AND_ORGANIZATION ( #76, #100 ) ;
#136 = PERSON_AND_ORGANIZATION ( #76, #100 ) ;
#137 = ADVANCED_FACE ( 'NONE', ( #108 ), #53, .T. ) ;
#138 = PERSON_AND_ORGANIZATION_ROLE ( 'creator' ) ;
#139 = ADVANCED_FACE ( 'NONE', ( #27, #257 ), #80, .T. ) ;
#140 = DESIGN_CONTEXT ( 'detailed design', #163, 'design' ) ;
#141 = ORIENTED_EDGE ( 'NONE', *, *, #205, .F. ) ;
#142 = EDGE_LOOP ( 'NONE', ( #72 ) ) ;
#143 = EDGE_LOOP ( 'NONE', ( #145 ) ) ;
#144 = EDGE_CURVE ( 'NONE', #199, #199, #119, .T. ) ;
#145 = ORIENTED_EDGE ( 'NONE', *, *, #156, .F. ) ;
#146 = CARTESIAN_POINT ( 'NONE',  ( 2.192121859440034849E-15, 7.688928446038009577E-16, 0.6278486541091958806 ) ) ;
#147 = EDGE_LOOP ( 'NONE', ( #61 ) ) ;
#148 = EDGE_CURVE ( 'NONE', #236, #236, #127, .T. ) ;
#149 = CONICAL_SURFACE ( 'NONE', #34, 1.724999999999999201, 1.221730476396032161 ) ;
#150 = CARTESIAN_POINT ( 'NONE',  ( 1.047444401652940007E-13, 2.249639673992777927E-32, 30.00000000000000000 ) ) ;
#151 = SECURITY_CLASSIFICATION ( '', '', #56 ) ;
#152 = FACE_OUTER_BOUND ( 'NONE', #255, .T. ) ;
#153 = CARTESIAN_POINT ( 'NONE',  ( 1.187103655206665341E-13, 2.149999999999995470, 34.00000000000000000 ) ) ;
#154 = DIRECTION ( 'NONE',  ( -4.299750573515736746E-30, 1.000000000000000000, -1.210272192541971780E-15 ) ) ;
#155 =( NAMED_UNIT ( * ) SI_UNIT ( $, .STERADIAN. ) SOLID_ANGLE_UNIT ( ) );
#156 = EDGE_CURVE ( 'NONE', #92, #92, #10, .T. ) ;
#157 = APPLICATION_PROTOCOL_DEFINITION ( 'international standard', 'config_control_design', 1994, #198 ) ;
#158 = PERSON_AND_ORGANIZATION ( #76, #100 ) ;
#159 = PERSON_AND_ORGANIZATION_ROLE ( 'creator' ) ;
#160 = DATE_TIME_ROLE ( 'classification_date' ) ;
#161 = DIRECTION ( 'NONE',  ( 0.0000000000000000000, 0.0000000000000000000, 1.000000000000000000 ) ) ;
#162 = AXIS2_PLACEMENT_3D ( 'NONE', #261, #172, #112 ) ;
#163 = APPLICATION_CONTEXT ( 'configuration controlled 3d designs of mechanical parts and assemblies' ) ;
#164 = APPROVAL ( #38, 'UNSPECIFIED' ) ;
#165 = AXIS2_PLACEMENT_3D ( 'NONE', #130, #168, #11 ) ;
#166 = LOCAL_TIME ( 11, 34, 6.000000000000000000, #117 ) ;
#167 = ORIENTED_EDGE ( 'NONE', *, *, #254, .T. ) ;
#168 = DIRECTION ( 'NONE',  ( 3.491481338843133355E-15, -1.224646799147353207E-16, 1.000000000000000000 ) ) ;
#169 = CARTESIAN_POINT ( 'NONE',  ( 2.304377683636468267E-13, 2.299999999999992273, 66.00000000000000000 ) ) ;
#170 = DIRECTION ( 'NONE',  ( 8.217301096052212846E-30, -1.000000000000000000, 2.312964634635744633E-15 ) ) ;
#171 = AXIS2_PLACEMENT_3D ( 'NONE', #211, #237, #105 ) ;
#172 = DIRECTION ( 'NONE',  ( -3.491481338843133355E-15, -1.224646799147354045E-15, -1.000000000000000000 ) ) ;
#173 = APPROVAL_PERSON_ORGANIZATION ( #94, #46, #57 ) ;
#174 = CARTESIAN_POINT ( 'NONE',  ( 1.238506751323385060E-13, 4.344096907684248454E-14, 35.47224318643362295 ) ) ;
#175 = DIRECTION ( 'NONE',  ( 3.491481338843133355E-15, -1.224646799147353207E-16, 1.000000000000000000 ) ) ;
#176 = FACE_OUTER_BOUND ( 'NONE', #125, .T. ) ;
#177 =( NAMED_UNIT ( * ) PLANE_ANGLE_UNIT ( ) SI_UNIT ( $, .RADIAN. ) );
#178 = COORDINATED_UNIVERSAL_TIME_OFFSET ( 1, 0, .AHEAD. ) ;
#179 = AXIS2_PLACEMENT_3D ( 'NONE', #262, #238, #32 ) ;
#180 = PERSON_AND_ORGANIZATION_ROLE ( 'design_owner' ) ;
#181 = CALENDAR_DATE ( 2021, 15, 10 ) ;
#182 = PRODUCT_DEFINITION_FORMATION_WITH_SPECIFIED_SOURCE ( 'ANY', '', #54, .NOT_KNOWN. ) ;
#183 = DATE_AND_TIME ( #181, #42 ) ;
#184 = ADVANCED_FACE ( 'NONE', ( #48, #260 ), #15, .T. ) ;
#185 = AXIS2_PLACEMENT_3D ( 'NONE', #50, #68, #128 ) ;
#186 = ORIENTED_EDGE ( 'NONE', *, *, #156, .T. ) ;
#187 = ADVANCED_BREP_SHAPE_REPRESENTATION ( '62857', ( #251, #256, #209 ), #223 ) ;
#188 = DIRECTION ( 'NONE',  ( -3.491481338843133355E-15, 1.224646799147353207E-16, -1.000000000000000000 ) ) ;
#189 = FACE_OUTER_BOUND ( 'NONE', #147, .T. ) ;
#190 = CARTESIAN_POINT ( 'NONE',  ( 1.238506751323385312E-13, -2.999999999999954703, 35.47224318643363006 ) ) ;
#191 = CARTESIAN_POINT ( 'NONE',  ( 2.304377683636468267E-13, -8.082668874372532400E-15, 66.00000000000000000 ) ) ;
#192 = DIRECTION ( 'NONE',  ( 3.491481338843133355E-15, 1.224646799147354045E-15, 1.000000000000000000 ) ) ;
#193 = FACE_OUTER_BOUND ( 'NONE', #227, .T. ) ;
#194 = DIRECTION ( 'NONE',  ( 0.0000000000000000000, 1.000000000000000000, 0.0000000000000000000 ) ) ;
#195 = ADVANCED_FACE ( 'NONE', ( #207 ), #111, .F. ) ;
#196 = CARTESIAN_POINT ( 'NONE',  ( 1.047444401652940007E-13, -2.149999999999939515, 30.00000000000000000 ) ) ;
#197 = DIRECTION ( 'NONE',  ( -3.491481338843133355E-15, 1.224646799147353207E-16, -1.000000000000000000 ) ) ;
#198 = APPLICATION_CONTEXT ( 'configuration controlled 3d designs of mechanical parts and assemblies' ) ;
#199 = VERTEX_POINT ( 'NONE', #169 ) ;
#200 = COORDINATED_UNIVERSAL_TIME_OFFSET ( 1, 0, .AHEAD. ) ;
#201 = APPROVAL_PERSON_ORGANIZATION ( #22, #242, #23 ) ;
#202 = DATE_AND_TIME ( #222, #248 ) ;
#203 = DIRECTION ( 'NONE',  ( 1.000000000000000000, 0.0000000000000000000, 0.0000000000000000000 ) ) ;
#204 = PERSON_AND_ORGANIZATION ( #76, #100 ) ;
#205 = EDGE_CURVE ( 'NONE', #18, #18, #118, .T. ) ;
#206 = AXIS2_PLACEMENT_3D ( 'NONE', #71, #214, #132 ) ;
#207 = FACE_OUTER_BOUND ( 'NONE', #25, .T. ) ;
#208 = AXIS2_PLACEMENT_3D ( 'NONE', #174, #12, #170 ) ;
#209 = AXIS2_PLACEMENT_3D ( 'NONE', #59, #161, #203 ) ;
#210 = PLANE ( 'NONE',  #124 ) ;
#211 = CARTESIAN_POINT ( 'NONE',  ( 2.981114621731531144E-15, 1.045634252367092336E-15, 0.8538251625653232590 ) ) ;
#212 = DIRECTION ( 'NONE',  ( -3.491481338843133355E-15, -1.224646799147354045E-15, -1.000000000000000000 ) ) ;
#213 = VERTEX_POINT ( 'NONE', #90 ) ;
#214 = DIRECTION ( 'NONE',  ( -3.491481338843133355E-15, -1.224646799147354045E-15, -1.000000000000000000 ) ) ;
#215 = CLOSED_SHELL ( 'NONE', ( #37, #26, #195, #87, #229, #245 ) ) ;
#216 = CC_DESIGN_SECURITY_CLASSIFICATION ( #151, ( #182 ) ) ;
#217 = CARTESIAN_POINT ( 'NONE',  ( 2.304377683636468267E-13, 1.724723750061123933E-32, 66.00000000000000000 ) ) ;
#218 = CARTESIAN_POINT ( 'NONE',  ( 1.268743866686156822E-13, 4.450154431556729526E-14, 36.33826859021798583 ) ) ;
#219 = PRODUCT_DEFINITION_SHAPE ( 'NONE', 'NONE',  #122 ) ;
#220 = DATE_AND_TIME ( #225, #121 ) ;
#221 = CC_DESIGN_PERSON_AND_ORGANIZATION_ASSIGNMENT ( #91, #138, ( #182 ) ) ;
#222 = CALENDAR_DATE ( 2021, 15, 10 ) ;
#223 =( GEOMETRIC_REPRESENTATION_CONTEXT ( 3 ) GLOBAL_UNCERTAINTY_ASSIGNED_CONTEXT ( ( #113 ) ) GLOBAL_UNIT_ASSIGNED_CONTEXT ( ( #106, #177, #155 ) ) REPRESENTATION_CONTEXT ( 'NONE', 'WORKASPACE' ) );
#224 = APPROVAL_DATE_TIME ( #202, #164 ) ;
#225 = CALENDAR_DATE ( 2021, 15, 10 ) ;
#226 = PERSON_AND_ORGANIZATION_ROLE ( 'design_supplier' ) ;
#227 = EDGE_LOOP ( 'NONE', ( #99 ) ) ;
#228 = ORIENTED_EDGE ( 'NONE', *, *, #129, .T. ) ;
#229 = ADVANCED_FACE ( 'NONE', ( #104, #88 ), #259, .T. ) ;
#230 = EDGE_LOOP ( 'NONE', ( #66 ) ) ;
#231 = EDGE_LOOP ( 'NONE', ( #64 ) ) ;
#232 = CC_DESIGN_PERSON_AND_ORGANIZATION_ASSIGNMENT ( #158, #226, ( #182 ) ) ;
#233 = CYLINDRICAL_SURFACE ( 'NONE', #252, 2.149999999999976374 ) ;
#234 = DIRECTION ( 'NONE',  ( 3.491481338843133355E-15, 1.224646799147354045E-15, 1.000000000000000000 ) ) ;
#235 = CC_DESIGN_APPROVAL ( #46, ( #182 ) ) ;
#236 = VERTEX_POINT ( 'NONE', #196 ) ;
#237 = DIRECTION ( 'NONE',  ( -3.491481338843133355E-15, -1.224646799147354045E-15, -1.000000000000000000 ) ) ;
#238 = DIRECTION ( 'NONE',  ( -3.491481338843133355E-15, 1.224646799147353207E-16, -1.000000000000000000 ) ) ;
#239 = CARTESIAN_POINT ( 'NONE',  ( 2.981114621731521678E-15, 2.149999999999999467, 0.8538251625653207055 ) ) ;
#240 = FACE_OUTER_BOUND ( 'NONE', #249, .T. ) ;
#241 = AXIS2_PLACEMENT_3D ( 'NONE', #258, #234, #47 ) ;
#242 = APPROVAL ( #1, 'UNSPECIFIED' ) ;
#243 = MECHANICAL_CONTEXT ( 'NONE', #198, 'mechanical' ) ;
#244 = CALENDAR_DATE ( 2021, 15, 10 ) ;
#245 = ADVANCED_FACE ( 'NONE', ( #35 ), #210, .F. ) ;
#246 = EDGE_LOOP ( 'NONE', ( #228 ) ) ;
#247 = CIRCLE ( 'NONE', #162, 1.724999999999999423 ) ;
#248 = LOCAL_TIME ( 11, 34, 6.000000000000000000, #20 ) ;
#249 = EDGE_LOOP ( 'NONE', ( #17 ) ) ;
#250 = EDGE_LOOP ( 'NONE', ( #77 ) ) ;
#251 = MANIFOLD_SOLID_BREP ( 'Corps-Déplacer/Copier1[1]', #215 ) ;
#252 = AXIS2_PLACEMENT_3D ( 'NONE', #103, #212, #154 ) ;
#253 = EDGE_LOOP ( 'NONE', ( #7 ) ) ;
#254 = EDGE_CURVE ( 'NONE', #213, #213, #247, .T. ) ;
#255 = EDGE_LOOP ( 'NONE', ( #167 ) ) ;
#256 = MANIFOLD_SOLID_BREP ( 'Corps-Déplacer/Copier1[2]', #39 ) ;
#257 = FACE_OUTER_BOUND ( 'NONE', #123, .T. ) ;
#258 = CARTESIAN_POINT ( 'NONE',  ( 2.981114621731531144E-15, 1.045634252367092336E-15, 0.8538251625653232590 ) ) ;
#259 = CONICAL_SURFACE ( 'NONE', #85, 3.499999999999949818, 0.5235987755982977054 ) ;
#260 = FACE_OUTER_BOUND ( 'NONE', #143, .T. ) ;
#261 = CARTESIAN_POINT ( 'NONE',  ( 2.192121859440034849E-15, 7.688928446038009577E-16, 0.6278486541091958806 ) ) ;
#262 = CARTESIAN_POINT ( 'NONE',  ( 0.0000000000000000000, 0.0000000000000000000, 0.0000000000000000000 ) ) ;
#263 = AXIS2_PLACEMENT_3D ( 'NONE', #217, #134, #19 ) ;
ENDSEC;
END-ISO-10303-21;
